Artist: Backyard Babies
Song: Pet Semetary
Album: The Song Ramones The Same
Tabbed by: Philip Thorn
Tuning: Standard

Intro/Verse
e|---------------------------------------|
B|---------------------------------------|
G|---------------------------------------|
D|-8888-AAAA BBBBBBBB--------------------| A=10 B=11
A|-6666-8888-99999999--------------------|
E|---------------------------------------|

Pre Chorus
e|---------------------------------------|
B|---------------------------------------|
G|---------------------------------------|
D|-66666666-88888888-66666666-88888888---|
A|-44444444-66666666-44444444-66666666---|
E|---------------------------------------|
e|---------------------------------------|
B|---------------------------------------|
G|---------------------------------------|
D|-4444444444444--66---------------------|
A|-2222222222222--44---------------------|
E|---------------------------------------|

Chorus
e|---------------------------------------|
B|---------------------------------------|
G|---------------------------------------|
D|-66666666----------66666666-44444444---|
A|-44444444-44444444-44444444-22222222---|
E|----------22222222---------------------|
e|---------------------------------------|
B|---------------------------------------|
G|---------------------------------------|
D|-88888888-66666666-44444444-66666666---|
A|-66666666-44444444-22222222-44444444---|
E|---------------------------------------|

Bridge (Let it ring)
e|---------------------------------------|
B|---------------------------------------|
G|---------------------------------------|
D|-4-------8-------4-------6---6-8-6-4---|
A|-2-------6-6-8-9-2-------4-------------|
E|---------------------------------------|

Outro
e|---------------------------------------|
B|---------------------------------------|
G|---------------------------------------|
D|-88888888-66666666-44444444-66666666---|
A|-66666666-44444444-22222222-44444444---|
E|---------------------------------------|

End Chord (Let it ring)
e|---------------------------------------|
B|---------------------------------------|
G|---------------------------------------|
D|-8-------------------------------------|
A|-6-------------------------------------|
E|---------------------------------------|

Play order:
-----------
1. Intro/Verse x 6
2. Pre Chorus x 1
3. Chorus x 2
4. Intro/Verse x 4
5. Pre Chorus x 1
6. Chorus x 2
7. Bridge x 1
8. Intro/Verse x 4
9. Pre Chorus x 1
10. Chorus x 2
11. Outro x 6
12. End Chord x 1




Ваше мнение



Капча