Band: Backyard Babies
Song: Pet Semetary - The song Ramones the same
Tabbed By: Uzi69
Instrument: Bass

Standard Tuning: EADG

Intro:
G|---------------------------------|
D|---------------------------------|
A|---------------------------------|
E|-0-0-0-0-2-2-2-2-3-3-3-3-3-3-3-3-|

Verse:
G|---------------------------------|
D|---------------------------------|
A|---------------------------------|
E|-0-0-0-0-2-2-2-2-3-3-3-3-3-3-3-3-|

Pre-chorus:
G|-----------------------------------|
D|-----------------------------------|
A|-5-5-5-5-5-5-5-5-7-7-7-7-7-7-7-7---|
E|-----------------------------------|

G|-----------------------------------|
D|-----------------------------------|
A|-5-5-5-5-5-5-5-5-7-7-7-7-7-7-7-7---|
E|-----------------------------------|

G|-----------------------------------|
D|-----------------------------------|
A|-3-3-3-3-3-3-3-3-3-3-3-3-3-3-3-3---|
E|-----------------------------------|

Chorus:
G|------------------------------------------|
D|------------------------------------------|
A|-7-7-7-7-7-7-7-7--------------------------|
E|------------------10-10-10-10-10-10-10-10-|

G|------------------------------------------|
D|------------------------------------------|
A|-10-10-10-10-10-10-10-10-8-8-8-8-8-8-8-8--|
E|------------------------------------------|

G|------------------------------------------|
D|------------------------------------------|
A|-7-7-7-7-7-7-7-7-5-5-5-5-5-5-5-5----------|
E|------------------------------------------|

G|------------------------------------------|
D|------------------------------------------|
A|-3-3-3-3-3-3-3-3-5-5-5-5-5-5-5-5----------|
E|------------------------------------------|

Break Down:
G|-----------------------------------------------------------------|
D|-----------------------------------------------------------------|
A|-3-3-3-3-3-3-3-3-3-3-3-3-3-3-3-3-7-7-7-7-7-7-7-7-7-7-7-7-7-7-7-7-|
E|-----------------------------------------------------------------|

G|-----------------------------------------------------------------|
D|-----------------------------------------------------------------|
A|-3-3-3-3-3-3-3-3-3-3-3-3-3-3-3-3-5-5-5-5-5-5-5-5-5-5-5-5-5-5-5-5-|
E|-----------------------------------------------------------------|

Outro:(End riff of The chorus)
G|------------------------------------------|
D|------------------------------------------|
A|-7-7-7-7-7-7-7-7-5-5-5-5-5-5-5-5----------|
E|------------------------------------------|

G|------------------------------------------|
D|------------------------------------------|
A|-3-3-3-3-3-3-3-3-5-5-5-5-5-5-5-5----------|
E|------------------------------------------|

Song Order:
Intro x2
Verse x 4
Pre-chorus x1
Chorus x2
Verse x4
Pre-chorus x1
Chorus x2
Break-Down x1
Verse x4
Pre-Chorus x1
Chorus x2
Outro x4

+---------------------------+
| Taken from Dreggy's |
| Backyard Babies Website |
|www.backyard-babies.cjb.net|
+---------------------------+




Ваше мнение



Капча