Artist: Backyard Babies
Title: Made Me Madman
Taken from: Total 13
Tabbed by: Ari ([email protected])

All guitars tuned down Ѕ step (low to high: Eb, Ab, Db, Gb, Bb, Eb)

riff A
|-----------------------------------------|
|-----------------------------------------|
|---------------------------7-7-7-7-------|
|-7-7-7-7-7-7-7-7--5-5-5-5--7-7-7-7-------|
|-7-7-7-7-7-7-7-7--5-5-5-5--5-5-5-5-------|
|-5-5-5-5-5-5-5-5--3-3-3-3----------------|

riff B
|-------------------------------------|-------------------------------------|
|-------------------------------------|-------------------------------------|
|-5-5-5-5-5-5-5-5-5-5-5-5-5-5-5-5-----|-2-2-2-2-2-2-2-2-2-2-2-2-2-2-2-2-----|
|-5-5-5-5-5-5-5-5-5-5-5-5-5-5-5-5-----|-2-2-2-2-2-2-2-2-2-2-2-2-2-2-2-2-----|
|-3-3-3-3-3-3-3-3-3-3-3-3-3-3-3-3-----|-0-0-0-0-0-0-0-0-0-0-0-0-0-0-0-0-----|
|-------------------------------------|-------------------------------------|
P.M--| P.M P.M P.M
P.M------------------------------------------------------|

riff B
(continues)
|-------------------------------------|----------------------------------|
|-------------------------------------|----------------------------------|
|-5-5-5-5-5-5-5-5-5-5-5-5-5-5-5-5-----|-----2-2-------------2-2----------|
|-5-5-5-5-5-5-5-5-5-5-5-5-5-5-5-5-----|-------------2-2-------------2-2--|
|-3-3-3-3-3-3-3-3-3-3-3-3-3-3-3-3-----|-0-0-----0-0-----0-0-----0-0------|
|-------------------------------------|----------------------------------|
P.M--| P.M P.M P.M P.M------| P.M P.M P.M

riff C
|---------------------------------------------------------------------------|
|---------------------------------------------------------------------------|
|-5-5-5-5-5-5-5-5-5-5-5-5-5-5-5-5--7-7-7-7-7-7-7-7--9-9-9-9-9-9-9-9---------|
|-5-5-5-5-5-5-5-5-5-5-5-5-5-5-5-5--7-7-7-7-7-7-7-7--9-9-9-9-9-9-9-9---------|
|-3-3-3-3-3-3-3-3-3-3-3-3-3-3-3-3--5-5-5-5-5-5-5-5--7-7-7-7-7-7-7-7---------|
|---------------------------------------------------------------------------|

riff D
|-------------------------------------|--------------------------------|
|-------------------------------------|--5-5-5-5-5-5-5-5-5-5-----------|
|-5-5-5-5-5-5-5-5-5-5-5-5-5-5-5-5-----|-7b(9-9-9-9-9-9-9-9-9r)-5-5-----|
|-5-5-5-5-5-5-5-5-5-5-5-5-5-5-5-5-----|--------------------------------|
|-3-3-3-3-3-3-3-3-3-3-3-3-3-3-3-3-----|--------------------------------|
|-------------------------------------|--------------------------------|
P.M--| P.M P.M P.M P.M

riff D
(continues)
|-------------------------------------|-------------------------------------|
|-------------------------------------|-------------------------------------|
|-5-5-5-5-5-5-5-5-5-5-5-5-5-5-5-5-----|-2-2-2-2-2-2-2-2-2-2-2-2-2-2-2-2-----|
|-5-5-5-5-5-5-5-5-5-5-5-5-5-5-5-5-----|-2-2-2-2-2-2-2-2-2-2-2-2-2-2-2-2-----|
|-3-3-3-3-3-3-3-3-3-3-3-3-3-3-3-3-----|-0-0-0-0-0-0-0-0-0-0-0-0-0-0-0-0-----|
|-------------------------------------|-------------------------------------|
P.M--| P.M P.M P.M P.M
(2nd guitar: pickslide up)

riff E
|----------------------------------------------------------------------------|
|----------------------------------------------------------------------------|
|-5-5-5-5-5-5-5-5--7-7-7-7-7-7-7-7--9-9-9-9-9-9-9-9-9-9-9-9-9-9-9--7---------|
|-5-5-5-5-5-5-5-5--7-7-7-7-7-7-7-7--9-9-9-9-9-9-9-9-9-9-9-9-9-9-9--7---------|
|-3-3-3-3-3-3-3-3--5-5-5-5-5-5-5-5--7-7-7-7-7-7-7-7-7-7-7-7-7-7-7--5---------|
|----------------------------------------------------------------------------|

riff F
|--------------------------------------------------------------------------|
|--------------------------------------------------------------------------|
|-5-5-5-5-5-5-5-5-5-5-5-5-5-5-5-5--7-7-7-7-7-7-7-7-7-7-7-7-7-7-7-7---------|
|-5-5-5-5-5-5-5-5-5-5-5-5-5-5-5-5--7-7-7-7-7-7-7-7-7-7-7-7-7-7-7-7---------|
|-3-3-3-3-3-3-3-3-3-3-3-3-3-3-3-3--5-5-5-5-5-5-5-5-5-5-5-5-5-5-5-5---------|
|--------------------------------------------------------------------------|

riff G
|-------|
|-------|
|-------|
|-7-7-/-|
|-7-7-/-|
|-5-5-/-|

riff H
|-------------------------------------------|
|-------------------------------------------|
|--------5-5-/--7-7-/--9-9-/----------------|
|-7-7-/--5-5-/--7-7-/--9-9-/--7--(7)-7-/----|
|-7-7-/--3-3-/--5-5-/--7-7-/--7--(7)-7-/----|
|-5-5-/-----------------------5--(5)-5-/----|

Structure:
A(x2), B, C, A(x2), D, C, A(x4), E(x2), F, G, A(x6), H

[There's always a melody going over riff A, but I haven't figured it out,
sorry!!!]




Ваше мнение



Капча