Artist: Backyard Babies
Title: I Love To Roll
Taken from: Making Enemies Is Good
Tabbed by: Josh Matter

1...2...3......4 yeah.
|-------------------------------------------------------------------------------------------|
|-------------------------------------------------------------------------------------------|
|---------3-3-3--5---------------------------------------------------------3-3-3-3--5-5-5-5-|
|-5--5-5--3-3-3--5---------------------------------------------------------3-3-3-3--5-5-5-5-|
|-5--5-5--1-1-1--3------10-------10-------10-------------------------------1-1-1-1--3-3-3-3-|
|-3--3-3----------9-10----9-10-----9-10----9-10-9-10-9-10-9-10-3-(x4)-----------------------|

Sex...drugs...rock
|--------------------------------------|
|--------------------------------------|
|------------------------3-5-3-5-3-5---|
|------------------------3-5-3-5-3-5---|
|------------------------1-3-1-3-1-3---|
|-/6/3--/8/3-----/6/3------------------|

Verse... I fuckin' luv it...
|----------------------------------------------------------------|
|----------------------------------------------------------------|
|-8888-8888-5-3---------------5-3-8888-8888----------------------|
|-8888-8888-5-3-5555-5555-5-3-8888-8888-5555-5555----------------|
|-6666-6666-3-1-5555-5555-3-1-6666-6666-5555-5555----------------|
|--------------------3333-3333--------------------3333-3333------|




Ваше мнение



Капча