Author/Artist: Backyard Babies
Title: Highlights
TAken from: Total 13
Transcribed by: Andy Wilson & some of Dreggy
Email: [email protected] & [email protected]

[email protected]--------------|
|------------------------------------------------------------------------------|
|---9h10-10-10-10-10-9-9-9-9-7-7-7-7-5-5-5-5h7-7-7-5-5-5h7-7-7-5-5-------------|
|---0--0--0--0--0--0-0-0-0-0-0-0-0-0-0-0-0-0-0-0-0-0-0-0-0-0-0-0-0-------------|
|------------------------------------------------------------------------------|
|------------------------------------------------------------------------------|

Ok. That's the intro. in the end Dregen plays some wah wah sound. After that

|------------------------------------------------------------------------------|
|------------------------------------------------------------------------------|
|----------------7--7--7--7--7--7--7-----------------5-------------------------|
|----------------7--7--7--7--7--7--7-----------------5----------5--------------|
|---------3------5--5--5--5--5--5--5-----------------3----------5--------------|
|--3--5---------------------------------------------------------3--------------|

play this I saw red,I saw green,.... the whole worlds seen

|------------------------------------------------------------------------------|
|------------------------------------------------------------------------------|
|--7--7--7--7--7--7--7--7--7--7--7--7--7--7--7--7------------5--5--5-----------|
|--7--7--7--7--7--7--7--7--7--7--7--7--7--7--7--7------------5--5--5-----------|
|--5--5--5--5--5--5--5--5--5--5--5--5--5--5--5--5------------3--3--3-----------|
|------------------------------------------------------------------------------|

Gotta get away gotta get away, cause I know nothing lasts forever in my

|------------------------------------------------------------------------------|
|------------------------------------------------------------------------------|
|------------------------------------------------------------------------------|
|--5--5--5--5--5---------------------------------------------------------------|
|--5--5--5--5--5---------------------------------------------------------------|
|--3--3--3--3--3---------------------------------------------------------------|

dreams there s a highlight let me be (intro again)

|------------------------------------------------------------------------------|
|------------------------------------------------------------------------------|
|------------------------------------------------------------------------------|
|------------------------------------------------------------------------------|
|--------3--5--------3--5--------3---------------------------------------------|
|--3--5--------3--5--------3--5-----5------------------------------------------|

after they have played the intro sometimes they play like this

|------------------------------------------------------------------------------|
|------------------------------------------------------------------------------|
|------------------------------------------------------------------------------|
|--5--7----5--7----5--7----5--7------------------------------------------------|
|--5--7----5--7----5--7----5--7------------------------------------------------|
|--3--5----3--5----3--5----3--5------------------------------------------------|

and before the solo they play something like this

|------------------------------------------------------------------------------|
|------------------------------------------------------------------------------|
|----------5--7------------5--7------------------------------------------------|
|--5--7----5--7----5--7----5--7------------------------------------------------|
|--5--7----3--5----5--7----3--5------------------------------------------------|
|--3--5------------3--5--------------------------------------------------------|

during the solo Nicke play this over and over. Then they play from the
intro
again. And in the end of the song Dregen plays something with Wah-Wah.




Ваше мнение



Капча