Artist: Backyard Babies
Title: Can't find the door
Taken from: Total 13 (UK Release)
Tabbed by: Unknown
INTRO:
Play this x8
F# A B
E|---------|
B|---------|
G|-------4-|
D|-4--7--4-|
A|-4--7--2-|
E|-2--5----|
Verse x8
F# A B
E|---------|
B|---------|
G|-------4-|
D|-4--7--4-|
A|-4--7--2-|
E|-2--5----|
(0,44 ??, Thatґs gonna be allright now baby)
D C
E|------|
B|------|
G|-7--5-|
D|-7--5-|
A|-5--3-|
E|------|
Ref. (Can't find the door) x4
F# A B
E|---------|
B|---------|
G|-------4-|
D|-4--5--4-|
A|-4--5--2-|
E|-2--3----|
(Dregen Riff)
F# A B
E|---------|
B|---------|
G|-------4-|
D|-4--5--4-|
A|-4--5--2-|
E|-2--3----|
Verse x4
F# A B
E|---------|
B|---------|
G|-------4-|
D|-4--5--4-|
A|-4--5--2-|
E|-2--3----|
1.33 ??
Play this x2
F# A B
E|---------|
B|---------|
G|-------4-|
D|-4--5--4-|
A|-4--5--2-|
E|-2--3----|
D C
E|------|
B|------|
G|-7--5-|
D|-7--5-|
A|-5--3-|
E|------|
Verse x4
F# A B
E|---------|
B|---------|
G|-------4-|
D|-4--5--4-|
A|-4--5--2-|
E|-2--3----|
2,00 Solo
F# A B
E|---------|
B|---------|
G|-------4-|
D|-4--5--4-|
A|-4--5--2-|
E|-2--3----|
??
D C
E|------|
B|------|
G|-7--5-|
D|-7--5-|
A|-5--3-|
E|------|
(if you learn this then you can play the rest part)




Ваше мнение



Капча