Title: Brand new hate
Artist: BACKYARD BABIES
Tab: Florian alias Todesengel
Tuning: Eb
Very Fast: 181 bpm
Intro:
Gtr. 1 w/distortion
e|--------------|--------------|--------------|--------------|--------------|
b|--------------|--------------|--------------|--------------|--------------|
g|--------------|9 |9 |
d|--------------|9 2 Takte durchklingen lassen|9 2 Takte durchklingen lassen|
a|--------------|7 |7 |
E|--------------|--------------|--------------|--------------|--------------|
e|--------------|--------------|--------------|--------------|--------------|
b|--------------|--------------|--------------|--------------|--------------|
g|--------------|9 |9 |
d|--------------|9 2 Takte durchklingen lassen|9 2 Takte durchklingen lassen|
a|--------------|7 |7 |
E|--------------|--------------|--------------|--------------|--------------|
Gtr.1
e|----------------|----------------|----------------|----------------|
b|----------------|----------------|----------------|----------------|
g|7/9-9-9-7/9-9-7-|-------7--------|7/9-9-9-7/9-9-7-|-------7--------|
d|7/9-9-9-7/9-9-7-|---7---7---7----|7/9-9-9-7/9-9-7-|---7---7---7----|
a|5/7-7-7-5/7-7-5-|---7---5---7----|5/7-7-7-5/7-7-5-|---7---5---7----|
E|----------------|---5-------5----|----------------|---5-------5----|
|
|Gtr. 2 w/distortion + wah
|
e|----------------|----------------|-----------------|----------------|
b|----------------|----------------|--------------10b1/2-10-10-10-----|
g|9-9-9-9-9-9-9-9-|----9--9--9-----|9-9-9-9-9-9-9--9-|----9--9--9-----|
d|----------------|----------------|-----------------|----------------|
a|----------------|----------------|-----------------|----------------|
E|----------------|----------------|-----------------|----------------|
Gtr.1
e|----------------|----------------|----------------|----------------|
b|----------------|----------------|----------------|----------------|
g|7/9-9-9-7/9-9-7-|-------7--------|7/9-9-9-7/9-9-7-|-------7--------|
d|7/9-9-9-7/9-9-7-|---7---7---7----|7/9-9-9-7/9-9-7-|---7---7---7----|
a|5/7-7-7-5/7-7-5-|---7---5---7----|5/7-7-7-5/7-7-5-|---7---5---7----|
E|----------------|---5-------5----|----------------|---5-------5----|
|
|Gtr. 2 w/distortion + wah
|
e|--------------------------------|----------------|-10-10----10-10---|-10-10----10-10---|
b|10b--10b-10b-10b--10b-10b---10b-|---10--8--------|-------8--------8-|-------8--------8-|
g|--------------------------------|-----------9----|------------------|------------------|
d|--------------------------------|----------------|------------------|------------------|
a|--------------------------------|----------------|------------------|------------------|
E|--------------------------------|----------------|------------------|------------------|
Verse:
Gtr.1 + 2 (no wah)
P.M. -----------------------------------------------------------
e|----------------|----------------|----------------|----------------|
b|----------------|----------------|----------------|----------------|
g|9--9-9-9-9-9-9--|9-9-9-9-9-9-9-9-|----------------|----------------|
d|9--9-9-9-9-9-9--|9-9-9-9-9-9-9-9-|7-7-7-7-7-7-7-7-|9-9-9-9-9-9-9-9-|
a|7--7-7-7-7-7-7--|7-7-7-7-7-7-7-7-|7-7-7-7-7-7-7-7-|9-9-9-9-9-9-9-9-|
E|----------------|----------------|5-5-5-5-5-5-5-5-|7-7-7-7-7-7-7-7-|
Gtr.1
Riff 1 Riff 1 End
e|----------------|----------------|----------------|----------------|
b|----------------|----------------|----------------|----------------|
g|---7--------7---|--------7-------|7/9-9-9-7/9-9-7-|-------7--------|
d|---7---7----7---|---7----7-------|7/9-9-9-7/9-9-7-|---7---7---7----|
a|---5---7----5---|---7----5-------|5/7-7-7-5/7-7-5-|---7---5---7----|
E|-------5--------|---5------------|----------------|---5-------5----|
|
|Gtr. 2
|
e|----------------|----------------|------------------------|----------------|
b|----------------|----------------|10/12-12-12-10/12-12-10-|------10--------|
g|---7--------7---|--------7-------|------------------------|---9---------9--|
d|---7---7----7---|---7----7-------|------------------------|----------------|
a|---5---7----5---|---7----5-------|------------------------|----------------|
E|-------5--------|---5------------|------------------------|----------------|
Gtr.1 + 2
P.M. -----------------------------------------------------------
e|----------------|----------------|----------------|----------------|
b|----------------|----------------|----------------|----------------|
g|9--9-9-9-9-9-9--|9-9-9-9-9-9-9-9-|----------------|----------------|
d|9--9-9-9-9-9-9--|9-9-9-9-9-9-9-9-|7-7-7-7-7-7-7-7-|9-9-9-9-9-9-9-9-|
a|7--7-7-7-7-7-7--|7-7-7-7-7-7-7-7-|7-7-7-7-7-7-7-7-|9-9-9-9-9-9-9-9-|
E|----------------|----------------|5-5-5-5-5-5-5-5-|7-7-7-7-7-7-7-7-|
Gtr.1
Riff 2 Riff 2 End
e|----------------|----------------|----------------|----------------|
b|----------------|----------------|----------------|----------------|
g|---7--------7---|--------7-------|7/9-9-9-7/9-9-7-|---9---7---9----|
d|---7---7----7---|---7----7-------|7/9-9-9-7/9-9-7-|---9---7---9----|
a|---5---7----5---|---7----5-------|5/7-7-7-5/7-7-5-|---7---5---7----|
E|-------5--------|---5------------|----------------|----------------|
|
|Gtr. 2
|
e|----------------|----------------|------------------------|----------------|
b|----------------|----------------|10/12-12-12-10/12-12-10-|---12---10---10-|
g|---7--------7---|--------7-------|------------------------|----------------|
d|---7---7----7---|---7----7-------|------------------------|----------------|
a|---5---7----5---|---7----5-------|------------------------|----------------|
E|-------5--------|---5------------|------------------------|----------------|
Chorus:
Riff 3 Riff 3 End Riff 4 Riff 4 End
e|----------------|----------------|----------------|----------------|
b|----------------|----------------|----------------|----------------|
g|---7------------|----------------|-----9------9---|-----9------9---|
d|---7------------|-7--------------|-----9------9---|-----9------9---|
a|---5------------|-7--------------|-----7------7---|-----7------7---|
E|----------------|-5--------------|-0-0----0-0-----|-0-0----0-0-----|
|
|
e|----------------|----------------|----------------|----------------|
b|----------------|----------------|----------------|----------------|
g|---7---7--7--7--|----------------|-----9------9---|-----9------9---|
d|---7---7--7--7--|-7--------------|----------------|----------------|
a|---5------------|-7----12-------|----------------|----------------|
E|----------------|-5--------------|-0-0----0-0-----|-0-0----0-0-----|
Riff 5 Riff 5 End
e|----------------|----------------|----------------|----------------|----------------|----------------|
b|----------------|----------------|----------------|----------------|----------------|----------------|
g|---7------------|----------------|7/9-9-9-7/9-9-7-|-------7--------|7/9-9-9-7/9-9-7-|-------7--------|
d|---7------------|-7--------------|7/9-9-9-7/9-9-7-|---7---7---7----|7/9-9-9-7/9-9-7-|---7---7---7----|
a|---5------------|-7--------------|5/7-7-7-5/7-7-5-|---7---5---7----|5/7-7-7-5/7-7-5-|---7---5---7----|
E|----------------|-5--------------|----------------|---5-------5----|----------------|---5-------5----|
|
|
e|----------------|----------------|-------------------------|----------------|-------------------------|----------------|
b|----------------|----------------|-10/12-12-12-10/12-12-10-|-------10-------|-10/12-12-12-10/12-12-10-|-------10-------|
g|---7---7--7--7--|----------------|-------------------------|----9-------9---|-------------------------|----9-------9---|
d|---7---7--7--7--|-7--------------|-------------------------|----------------|-------------------------|----------------|
a|---5------------|-7----12-------|-------------------------|----------------|-------------------------|----------------|
E|----------------|-5--------------|-------------------------|----------------|-------------------------|----------------|
Interlude:
Gtr.1 + 2
P.H. P.H.
e|------------------|------------------|------------------|------------------|
b|------------------|--------x-3-------|------------------|--------x-3-------|
g|---------7----7-7-|---7-7--x-2-2-----|---------7----7-7-|---7-7--x-2-2-----|
d|-2---2---7----7-7-|---7-7----0-2-----|-2---2---7----7-7-|---7-7----0-2-----|
a|-2---2------------|------------0-----|-2---2------------|------------0-----|
E|-0---0------------|------------------|-0---0------------|------------------|
P.H.
e|------------------|------------------|------------------|------------------|
b|------------------|--------3---------|------------------|--------x-3-------|
g|------------------|--------2---2-----|---------7----7-7-|---7-7--x-2-2-----|
d|-2----------------|--------0---2-----|-2---2---7----7-7-|---7-7----0-2-----|
a|-2----------------|------------0-----|-2---2------------|------------0-----|
E|-0----------------|------------------|-0---0------------|------------------|

P.M.-------------------------------------------------------------|
|--3---| |--3---| |--3---| |--3---| |--3---| |--3---| |--3---| |--3---|
e|------------------|------------------|------------------|------------------|
b|------------------|------------------|------------------|------------------|
g|------------------|------------------|------------------|------------------|
d|-2--2--2--2--2--2-|-2--2--2--2--2--2-|-2--2--2--2--2--2-|-2--2--2-------0--|
a|-2--2--2--2--2--2-|-2--2--2--2--2--2-|-2--2--2--2--2--2-|-2--2--2--0h2-----|
E|-0--0--0--0--0--0-|-0--0--0--0--0--0-|-0--0--0--0--0--0-|-0--0--0----------|
|--3---| |--3---| |--3---| |--3---|
e|------------------|------------------|-15-------15----|-15-------15----|
b|------------------|------------------|------------------|------------------|
g|------------------|------------------|------------------|------------------|
d|-2--2--2--2--2--2-|-2--2--2--2--2--2-|------------------|------------------|
a|-2--2--2--2--2--2-|-2--2--2--2--2--2-|------------------|------------------|
E|-0--0--0--0--0--0-|-0--0--0--0--0--0-|------------------|------------------|
e|-----------0------|------------------|------------------|----------0-------|
b|---------------0--|------------------|------------------|---------------0--|
g|------------------|-----1------------|-2----------------|-----0------------|
d|-------2----------|-----------2------|-2----------------|------------------| 2x
a|------------------|------------------|-0----------------|-3----------------|
E|-0----------------|------------------|------------------|------------------|
Solo:
Gtr.1 w/Riff 1, 3Times
Gtr.2
e|-----------------------------------------12--|---------12-------12----------12-------12----|
b|-----12-12--15p12-12-------12-12--15p12------|------12------15-----------12------15--------|
g|-14bfull---------------14bfull---------------|-14bfull---------------14bfull---------------|
d|---------------------------------------------|---------------------------------------------|
a|---------------------------------------------|---------------------------------------------|
E|---------------------------------------------|---------------------------------------------|
e|-15p12-15p12-15p12-15p12---------------------|---------------------------------------------|
b|-------------------------15p12-15p12-15p12---|-12--------12--------------------------------|
g|---------------------------------------------|-12--------12--------------------------------|
d|---------------------------------------------|------14-------------------------------------|
a|---------------------------------------------|---------------------------------------------|
E|---------------------------------------------|---------------------------------------------|
e|---------------------------------------------|--------------------------------------3------|
b|--15----------------15-----------------------|-15----------15----17---(17)----------------|
g|-----------12----------------12--------------|---------------------------------------------|
d|---------------------------------------------|---------------------------------------------|
a|---------------------------------------------|---------------------------------------------|
E|---------------------------------------------|---------------------------------------------|
e|-(3)---0-------------------------------------|---------------------------------------------|
b|----------3----0-----------------------------|---------------------------------------------|
g|--------------------2/42-------0------------|---------------------------------------------|
d|---------------------------------------------|-2-------------2-----------------------------|
a|---------------------------------------------|---------------------------------------------|
E|---------------------------------------------|-----0---3-----------------------------------|
Solo End
So ich denke den rest kreigt ihr selbst hin, ich hab keine lust mehr *G*!
Wer das Ende auch haben will, etwas verbessern oder sonst was will: [email protected]
happy Playing
c'ya Florian




Ваше мнение



Капча