Backstreet Boys - The Call
Submitted By: Stuart
EMail: [email protected]
Intro : Bm (strum fast) F#
e-------2--------------|---2-5-3-2------------------2----------|
b-------3--------------|-----------5-3-2------------2----------|
g-------4--------------|-----------------4--2-0-----3----------|
d-------4--------------|----------------------------4----------|
a-------2--------------|----------------------------4----------|
e----------------------|-------------------------2--2----------|
Bm-Bm-Bm-Bm-F#-Bm-Bm-Bm-Bm-F#-Bm-Bm-Bm-Bm-F#

e---3-2-0------------|
b---------3-2-0------|
g---------------3-4--|
d--------------------|
a--------------------|
e--------------------|
Verse1:
Bm F#
Let me tell you the story about the call that changed my destiny
Bm E F#
Me and my boys went out, just to end up in mysery
Bm F#
I was about to go home and there she was standing in front of me
G F#
And I, I got a little place nearby
Bm F#
I wanna go, I should have said no
D
Someone's waiting for me
E F#
But I'm gonna go up and see
chorus:
Bm
Listen Baby I'm sorry
F#
Just wanna tell you don't worry
D E F# Bm
I will be late don't stay up and wait for me
F# D
I'll say again you're drying out my battery it's low
E F#
So you know we're goin to a place nearby
Bm
I gotta go
Verse 2:
Now till it's done nothing's been won
I can't take it back what's done is done
One of her friends found out
That she wasn't the only one
And it eats me from inside, that she's not by my side
Just because I made that call and lied
CHORUSBreak
-----
Bm-Bm-Bm-Bm-F#-Bm-Bm-Bm-Bm-F#-Bm-Bm-Bm-Bm-F#
and then the notes from the chorus while they are singing
as a choirVERSE 3
C#m G#
Let me tell you the story about the call that changed my destiny
C#m F# G# C#m
Me and my boys went out, just to end up in mysery
G#
I was about to go home and there she was standing in front of me
A G#
Said I, I got a little wasted bye
C#m
Gotta go
CHORUS
C#m
Listen Baby I'm sorry
G#
Just wanna tell you don't worry
E F# G# C#m
I will be late don't stay up and wait for me
G# E
I'll say again you're drying out my battery it's low
F# G#
So you know we're goin to a place nearby
F# G#
We're goin to a place nearby
C#m
Gotta go
Play during the end of the last chorus
e---5-4-2------------|
b---------5-4-2------|
g---------------5-6--|
d--------------------|
a--------------------|
e--------------------|




Ваше мнение



Капча