T1: Tan Vui Chiang, [email protected], Backstreet Boys, Spanish Eyes, 1999
S1: I dunno know the date of release., Backstreet Boys - Spanish Eyes
Album: Millennium
Higher 1 key from normal key.
Note: *=2nd guitar
Solo(Intro/Chorus/Outro):
*|-12--12-12--10--9-----------12--12-12--10--9------10-|
|-------------------12--10---------------------12-----|
|-----------------------------------------------------|
|-----------------------------------------------------|
|-----------------------------------------------------|
|-----------------------------------------------------|
|-12--12-12--10--9--------------9--10-------|----------------------------|
|-------------------12--10--12---------12---|-10-9-10-9-----10-9-10-9----|
|-------------------------------------------|----------11-------------11-|
|-------------------------------------------|----------------------------|
|-------------------------------------------|----------------------------|
|-------------------------------------------|----------------------------|
Intro:
A A/G# F#m7 E
|--------0----|-------------|-------------|-------------|
|-------------|--------0----|--------2----|--------0----|
|----2--------|----2------2-|----2--------|-------------|
|------2----2-|------2------|------2----2-|------2----2-|
|-0-----------|-------------|-------------|----2--------|
|-------------|-4-----------|-2-----------|-0-----------|
D A/C# D E
|--------0/2/0---|-------------|--------2----|---------------|
|----3---------3-|--------0----|----3------3-|-------------0-|
|------2---------|----2--------|------2------|----------1----|
|-0--------------|------2----2-|-0-----------|-------2-------|
|----------------|-4-----------|-------------|----2----------|
|----------------|-------------|-------------|-0-------------|
Verse 1:
A E D
|-------------|--------------|-------------0----|
|--------2----|---------0----|------3---------0-|
|----2--------|--------------|----2---2---------|
|------2----2-|----2-------2-|-0--------0-------|
|-0-----------|------2-------|------------------|
|-------------|-0------------|------------------|
Here we are in the arms of one another
A E A/C# A/C#
|-------------|--------------|-------------|-------------|
|--------2----|---------0----|--------2----|--------2----|
|----2--------|--------------|----2--------|----2--------|
|------2----2-|----2-------2-|------2----2-|------2----2-|
|-0-----------|------2-------|-4-----------|-4-----------|
|-------------|-0------------|-------------|-------------|
And we still go on searching for each other
D D A A D
D
|--------2----|--------2----|-------------|-------------|--------0/2--|--------2----|
|----3------3-|----3------3-|--------2----|--------2----|----3------3-|----3------3-|
|------2------|------2------|----2--------|----2--------|------2------|------2------|
|-0-----------|-0-----------|------2----2-|------2----2-|-0-----------|-0-----------|
|-------------|-------------|-0-----------|-0-----------|-------------|-------------|
|-------------|-------------|-------------|-------------|-------------|-------------|
Knowing that hate is wrong and love is right for us tonight
A/G# A/G# D D
|-------------|------------|--------2----|--------2----|
|--------0----|-------0----|----3------3-|----3------3-|
|----2--------|---2--------|------2------|------2------|
|------2----2-|-----2----2-|-0-----------|-0-----------|
|-------------|------------|-------------|-------------|
|-4-----------|-4----------|-------------|-------------|
When I look into your Spanish eyes
F#m7 E D D
|-------------|-------------|--------2----|--------2----|
|--------2----|--------0----|----3------3-|----3------3-|
|----2--------|-------------|------2------|------2------|
|------2----2-|----2------2-|-0-----------|-0-----------|
|-------------|------2------|-------------|-------------|
|-2-----------|-0-----------|-------------|-------------|
I know the reason why I am alive
F#m7 E
|-------------|-------------|
|--------2----|--------0----|
|----2--------|-------------|
|------2----2-|----2------2-|
|-------------|------2------|
|-2-----------|-0-----------|
And the world is so beautiful tonight
Chorus:
A A/G# F#m7
|--------0----|-------------|-------------|
|-------------|--------0----|--------2----|
|----2--------|----2------2-|----2--------|
|------2----2-|------2------|------2----2-|
|-0-----------|-------------|-------------|
|-------------|-4-----------|-2-----------|
It's a place I've never been
E D
|-------------|--------2----|
|--------0----|----3------3-|
|-------------|------2------|
|------2----2-|-0-----------|
|----2--------|-------------|
|-0-----------|-------------|
And it comes from deep within
A/C# D E
|-------------|--------2----|-------------|
|--------0----|----3------3-|--------0----|
|----2--------|------2------|----1--------|
|------2----2-|-0-----------|------2----2-|
|-4-----------|-------------|-2-----------|
|-------------|-------------|-------------|
And it's telling me that I'm about to win first prize
A A/G# F#m7
|--------0----|-------------|-------------|
|-------------|--------0----|--------2----|
|----2--------|----2------2-|----2--------|
|------2----2-|------2------|------2----2-|
|-0-----------|-------------|-------------|
|-------------|-4-----------|-2-----------|
Knowing all I have to do
E D
|-------------|--------2----|
|--------0----|----3------3-|
|-------------|------2------|
|------2----2-|-0-----------|
|----2--------|-------------|
|-0-----------|-------------|
Is reach out my hand to you
A/C# D E A
|-------------|--------2----|-------------|---------|
|--------0----|----3------3-|--------0----|-------2-|
|----2--------|------2------|----1--------|---------|
|------2----2-|-0-----------|------2----2-|----2----|
|-4-----------|-------------|-2-----------|-0-------|
|-------------|-------------|-------------|---------|
Anytime I want to look into your Spanish eyes
Verse 2:
A E D
|--------------2--------|--------0-----------|
|--------2----------2---|----3-----3----2--0-|
|----2------------------|------2-----2-------|
|------2----2-----2---2-|-0------------------|
|-0---------------------|--------------------|
|-----------------------|--------------------|
Let it be if we're nothing more than dreamers
A E A/C# A/C#
|-------------|--------------|-------------|-------------|
|--------2----|---------0----|--------2----|--------2----|
|----2--------|--------------|----2--------|----2--------|
|------2----2-|----2-------2-|------2----2-|------2----2-|
|-0-----------|------2-------|-4-----------|-4-----------|
|-------------|-0------------|-------------|-------------|
Who believe that we see no wall between us
D D A A D
D
|--------2----|--------2----|-------------|-------------|--------0-----|--------0-----|
|----3------3-|----3------3-|--------2----|--------2----|----3-----3---|----3-----3---|
|------2------|------2------|----2--------|----2--------|------2-----2-|------2-----2-|
|-0-----------|-0-----------|------2----2-|------2----2-|-0------------|-0------------|
|-------------|-------------|-0-----------|-0-----------|--------------|--------------|
|-------------|-------------|-------------|-------------|--------------|--------------|
How can they be in my heart and in my mind when all I could find
A/G# D D
|----------------0-|--------2----|--------2----|
|----------0-------|----3------3-|----3------3-|
|----2---2---2-----|------2------|------2------|
|------2-------2---|-0-----------|-0-----------|
|------------------|-------------|-------------|
|-4----------------|-------------|-------------|
When I look into your Spanish eyes
F#m7 E D D
|-------------|-------------|--------2----|--------2----|
|--------2----|--------0----|----3------3-|----3------3-|
|----2--------|-------------|------2------|------2------|
|------2----2-|----2------2-|-0-----------|-0-----------|
|-------------|------2------|-------------|-------------|
|-2-----------|-0-----------|-------------|-------------|
I know the reason why I am alive
F#m7 E
|-------------|-------------|
|--------2----|--------0----|
|----2--------|-------------|
|------2----2-|----2------2-|
|-------------|------2------|
|-2-----------|-0-----------|
And the world is so beautiful tonight
Chorus:
A A/G# F#m7
|--------0----|-------------|-------------|
|-------------|--------0----|--------2----|
|----2--------|----2------2-|----2--------|
|------2----2-|------2------|------2----2-|
|-0-----------|-------------|-------------|
|-------------|-4-----------|-2-----------|
It's a place I've never been
E D
|-------------|--------2----|
|--------0----|----3------3-|
|-------------|------2------|
|------2----2-|-0-----------|
|----2--------|-------------|
|-0-----------|-------------|
And it comes from deep within
A/C# D E
|-------------|--------2----|-------------|
|--------0----|----3------3-|--------0----|
|----2--------|------2------|----1--------|
|------2----2-|-0-----------|------2----2-|
|-4-----------|-------------|-2-----------|
|-------------|-------------|-------------|
And it's telling me that I'm about to win first prize
A A/G# F#m7
|--------0----|-------------|-------------|
|-------------|--------0----|--------2----|
|----2--------|----2------2-|----2--------|
|------2----2-|------2------|------2----2-|
|-0-----------|-------------|-------------|
|-------------|-4-----------|-2-----------|
Knowing all I have to do
E D
|-------------|--------2----|
|--------0----|----3------3-|
|-------------|------2------|
|------2----2-|-0-----------|
|----2--------|-------------|
|-0-----------|-------------|
Is reach out my hand to you
A/C# D E A
|-------------|--------2----|-------------|---------|
|--------0----|----3------3-|--------0----|-------2-|
|----2--------|------2------|----1--------|---------|
|------2----2-|-0-----------|------2----2-|----2----|
|-4-----------|-------------|-2-----------|-0-------|
|-------------|-------------|-------------|---------|
Anytime I want to look into your Spanish eyes
Bridge:
D D A/C# A/C#
|--------2----|--------2----|--------2-----|--------2-----|
|----3------3-|----3------3-|----2-----2---|----2-----2---|
|------2------|------2------|------2-----2-|------2-----2-|
|-0-----------|-0-----------|--------------|--------------|
|-------------|-------------|-4------------|-4------------|
|-------------|-------------|--------------|--------------|
I loved you from a distance thought I couldn't reach that far
A A F#m7 F#m7
|--------------|--------------|------------|------------|
|--------2-----|--------2-----|----2---2---|----2---2---|
|----2-----2---|----2-----2---|------4-----|------4-----|
|------2-----2-|------2-----2-|------------|------------|
|-0------------|-0------------|------------|------------|
|--------------|--------------|-2----------|-2----------|
Solo:
*|------------10--10-10-10--------|
|----9-10-12---------------12-10-|
|-11-----------------------------|
|--------------------------------|
|--------------------------------|
|--------------------------------|
I can't believe how close that we are
A/G# A/G# A/C# A/C# D
D
|----2---4--2-|----2---4--2-|----2---4-2---|----2---4-2---|--------2-----|--------2-----|
|------2------|------2------|------2-----2-|------2-----2-|----3-----3---|----3-----3---|
|-------------|-------------|--------------|--------------|------2-----2-|------2-----2-|
|-------------|-------------|--------------|--------------|-0------------|-0------------|
|-------------|-------------|-4------------|-4------------|--------------|--------------|
|-4-----------|-4-----------|--------------|--------------|--------------|--------------|
Solo:
*|-9/10-9-------------------------------|
|--------12-10-9----------------9/10/9-|
|--------------------------------------|
|--------------------------------------|
|--------------------------------------|
|--------------------------------------|
When I look into your Spanish eyes
F#m7 E
|-------------|-------------|
|--------2----|--------0----|
|----2--------|-------------|
|------2----2-|----2------2-|
|-------------|------2------|
|-2-----------|-0-----------|
And the world is so beautiful tonight
Chorus:
A A/G# F#m7
|--------0----|-------------|-------------|
|-------------|--------0----|--------2----|
|----2--------|----2------2-|----2--------|
|------2----2-|------2------|------2----2-|
|-0-----------|-------------|-------------|
|-------------|-4-----------|-2-----------|
It's a place I've never been
E D
|-------------|--------2----|
|--------0----|----3------3-|
|-------------|------2------|
|------2----2-|-0-----------|
|----2--------|-------------|
|-0-----------|-------------|
And it comes from deep within
A/C# D E
|-------------|--------2----|-------------|
|--------0----|----3------3-|--------0----|
|----2--------|------2------|----1--------|
|------2----2-|-0-----------|------2----2-|
|-4-----------|-------------|-2-----------|
|-------------|-------------|-------------|
And it's telling me that I'm about to win first prize
A A/G# F#m7
|--------0----|-------------|-------------|
|-------------|--------0----|--------2----|
|----2--------|----2------2-|----2--------|
|------2----2-|------2------|------2----2-|
|-0-----------|-------------|-------------|
|-------------|-4-----------|-2-----------|
Knowing all I have to do
E D
|-------------|--------2----|
|--------0----|----3------3-|
|-------------|------2------|
|------2----2-|-0-----------|
|----2--------|-------------|
|-0-----------|-------------|
Is reach out my hand to you
A/C# D E A
|-------------|--------2----|-------------|---------|
|--------0----|----3------3-|--------0----|-------2-|
|----2--------|------2------|----1--------|---------|
|------2----2-|-0-----------|------2----2-|----2----|
|-4-----------|-------------|-2-----------|-0-------|
|-------------|-------------|-------------|---------|
Anytime I want to look into your Spanish eyes

From: V.Chiang




Ваше мнение



Капча