Artists: Backstreet Boys
Album: Millennium
Song: "I Want It That Way"
Capo on 2nd fret. This is a good song for the most part. I don't
"love" the Backstreet Boys but some of their music is okay.
I fit the tab to a normal sized piece of paper in size 9 Courier New.
Any gripes, complaints, or even complements, send to:
[email protected]
Note: Verse 2 and 2nd Verse are different things, just like Post-Chorus
2 and 2nd Post-Chorus. Notation at very bottom.
Intro / Verse:
Riff A:
(Vocal Patterns at Bottom)
Play 5 times
Em (F#m*) Em6 (F#m6*) C (D*) G (A*)
E|---------------|---------------|---------------|---------------|
B|-------0-----0-|---1-p-0-------|-----------1---|----------3----|
G|----------0----|----------0----|------0--------|-------0-----0-|
D|----2----------|---------------|---------------|----0----------|
A|---------------|---------------|-3-------------|---------------|
E|-0-------------|---------------|---------------|-3-------------|
1st time:
Then play first Pre-Chorus.
2nd time (also play Rhy. Fig. 1 three times on Guitar II):
** = Lyrics are sung at the end of the Pre/Post-Chrous just before.
Then play second Pre-Chorus.
Rhy. Fig. 1
Em (F#m*) Em (F#m*) C (D*) G (A*)
E|---------------|---------------|---------------|---------------|
B|-0----0----0---|-0----0----0---|-1----1----1---|-3----3----3---|
G|-0----0----0---|-0----0----0---|-0----0----0---|-0----0----0---|
D|-2----2----2---|-2----2----2---|-2----2----2---|-0----0----0---|
A|-2----2----2---|-2----2----2---|-3----3----3---|-2----2----2---|
E|-0----0----0---|-0----0----0---|---------------|-3----3----3---|
3rd time (also play Rhy. Fig. 2 three times on Guitar II):
Then play second Post-Chorus.
Pre/Post-Chorus:
Riff B
Play 1 time
Em (F#m*) Em6 (F#m6*) C (D*) G (A*)
E|-0-------------|---------------|---------------|---------------|




Ваше мнение



Капча