Backstreet Boys - I Need You Tonight
Album: Millenium
Tune the guitar and lower 1 key from normal key.(If you want the sound same with the
song)
Note: '!' means hit the strings with fingers.
Intro:
|-13-12----------------13-12--------------|
|---------13------15-----------13---------|
|--------------12-------------------12-14-|
|-----------------------------------------|
|-----------------------------------------|
|-----------------------------------------|
Intro: (Chords)
|-------0--------|----------------|-------0--------|-------0--------|
|-----1------1---|-------0--------|-----1------1---|-----1------1---|
|---0------0---0-|-----0------0---|---2------2---2-|---2------2---2-|
|----------------|---0------0---0-|----------------|-3--------------|
|-3--------------|----------------|-0--------------|----------------|
|----------------|-3--------------|----------------|----------------|
Verse 1:
|-------0----|-----------|------------|---|----------------|
|-----1------|-----------|-------1----|---|-------1--------|
|---0--------|------0----|-----0------|---|-----2------2---|
|-2----------|-0---------|---2------2-|---|---2------2---2-|
|------------|-----------|-3----------|-2-|-0--------------|
|------------|-----------|------------|---|----------------|
Open up your heart to me
|-------0----|-----------|------------|---|-----0---|-----0---|
|-----1------|-----------|-------1----|---|-----1---|-----0---|
|---0--------|------0----|-----0------|---|---2---2-|---0---0-|
|-2----------|-0---------|---2------2-|---|---------|---------|
|------------|-----------|-3----------|-2-|-0-------|-2-------|
|------------|-----------|------------|---|---------|---------|
And say what's on your mind, oh yes
Bridge:
|-------0--------|-----0---|-----0---|------------|----------------|
|-----0------0---|-----1---|-----0---|-------1----|----------------|
|---1------1---1-|---0---0-|---0---0-|-----2------|----------------|
|-2--------------|---------|---------|---2------2-|--------------0-|
|----------------|-3-------|-2-------|-0----------|-------3-2--3---|
|----------------|---------|---------|------------|-3--1-----------|
I know that we have been through so much pain
|-------0--------|-----0---|-----0---|----------------|-------2--------2-|
|-----0------0---|-----1---|-----0---|-------1--------|-----3------3---3-|
|---1------1---1-|---0---0-|---0---0-|-----2------2---|---2------2---2-2-|
|-2--------------|---------|---------|---2------2---2-|-0--------------0-|
|----------------|-3-------|-2-------|-0--------------|------------------|
|----------------|---------|---------|----------------|------------------|
But I still need you in my life this time
Chorus:
|-0--!----0-!---|---------------|-0--!----0-!---|-0--!----0-!---|
|-1--!----1-!---|-0--!----0-!---|-1--!----1-!---|-1--!----1-!---|
|-0--!----0-!---|-0--!----0-!---|-2--!----2-!---|-2--!----2-!---|
|---------------|-0--!----0-!---|---------------|-3----3------3-|
|-3----3------3-|---------------|-0----0------0-|---------------|
|---------------|-3----3------3-|---------------|---------------|
And I need you tonight I need you right now
|-0--!----0-!---|---------------|-0--!---|---------|-0--!----0-!---0-|
|-1--!----1-!---|-0--!----0-!---|-1--!---|-0--!----|-1--!----1-!---1-|
|-0--!----0-!---|-0--!----0-!---|-2--!---|-0--!----|-2--!----2-!---2-|
|---------------|-0--!----0-!---|--------|-0--!----|-3----3------3-3-|
|-3----3------3-|---------------|-0----0-|---------|-----------------|
|---------------|-3----3------3-|--------|-3----3--|-----------------|
I know deep within my heart It doesn't matter if it's wrong or right
|-------0--------|-------------|
|-----1------1---|-------0-----|
|---0------0---0-|-----0-------|
|----------------|---0---------|
|-3--------------|-------------|
|----------------|-3-----------|
I really need you tonight
Verse 2:
|-------0----|-----------|------------|---|----------------|
|-----1------|-----------|-------1----|---|-------1--------|
|---0--------|------0----|-----0------|---|-----2------2---|
|-2----------|-0---------|---2------2-|---|---2------2---2-|
|------------|-----------|-3----------|-2-|-0--------------|
|------------|-----------|------------|---|----------------|
I figured out what to say to you
|-------0----|-----------|------------|---|-----0---|-----0---|
|-----1------|-----------|-------1----|---|-----1---|-----0---|
|---0--------|------0----|-----0------|---|---2---2-|---0---0-|
|-2----------|-0---------|---2------2-|---|---------|---------|
|------------|-----------|-3----------|-2-|-0-------|-2-------|
|------------|-----------|------------|---|---------|---------|
But sometimes the words they, they come out so wrong, oh yes they do
Bridge:
|-------0--------|-----0---|-----0---|------------|----------------|
|-----0------0---|-----1---|-----0---|-------1----|----------------|
|---1------1---1-|---0---0-|---0---0-|-----2------|----------------|
|-2--------------|---------|---------|---2------2-|--------------0-|
|----------------|-3-------|-2-------|-0----------|-------3-2--3---|
|----------------|---------|---------|------------|-3--1-----------|
And I know in time that you will understand
|-------0--------|-----0---|-----0---|----------------|-------2--------2-|
|-----0------0---|-----1---|-----0---|-------1--------|-----3------3---3-|
|---1------1---1-|---0---0-|---0---0-|-----2------2---|---2------2---2-2-|
|-2--------------|---------|---------|---2------2---2-|-0--------------0-|
|----------------|-3-------|-2-------|-0--------------|------------------|
|----------------|---------|---------|----------------|------------------|
That what we have is so right this time
Chorus:
|-0--!----0-!---|---------------|-0--!----0-!---|-0--!----0-!---|
|-1--!----1-!---|-0--!----0-!---|-1--!----1-!---|-1--!----1-!---|
|-0--!----0-!---|-0--!----0-!---|-2--!----2-!---|-2--!----2-!---|
|---------------|-0--!----0-!---|---------------|-3----3------3-|
|-3----3------3-|---------------|-0----0------0-|---------------|
|---------------|-3----3------3-|---------------|---------------|
And I need you tonight I need you right now
|-0--!----0-!---|---------------|-0--!---|---------|-0--!----0-!---|
|-1--!----1-!---|-0--!----0-!---|-1--!---|-0--!----|-1--!----1-!---|
|-0--!----0-!---|-0--!----0-!---|-2--!---|-0--!----|-2--!----2-!---|
|---------------|-0--!----0-!---|--------|-0--!----|-3----3------3-|
|-3----3------3-|---------------|-0----0-|---------|---------------|
|---------------|-3----3------3-|--------|-3----3--|---------------|
I know deep within my heart It doesn't matter if it's wrong or right
|-0--!----0-!---|-0--!---|-0--!---|-0--!---|--------|-0--!---|-0--!---|-2--!----2-!---2-|
|-0--!----0-!---|-1--!---|-0--!---|-1--!---|-0--!---|-1--!---|-1--!---|-3--!----3-!---3-|
|-1--!----1-!---|-0--!---|-0--!---|-2--!---|-0--!---|-2--!---|-0--!---|-2--!----2-!---2-|
|-2----2------2-|--------|--------|--------|-0--!---|-3----3-|-2----2-|-0----0------0-0-|
|---------------|-3----3-|-2----2-|-0----0-|--------|--------|--------|-----------------|
|---------------|--------|--------|--------|-3----3-|--------|--------|-----------------|
All those endless times we tried to make it last forever more And baby I know
|-0--!----0-!---|---------------|-0--!----0-!---|-0--!----0-!---|
|-1--!----1-!---|-0--!----0-!---|-1--!----1-!---|-1--!----1-!---|
|-0--!----0-!---|-0--!----0-!---|-2--!----2-!---|-2--!----2-!---|
|---------------|-0--!----0-!---|---------------|-3----3------3-|
|-3----3------3-|---------------|-0----0------0-|---------------|
|---------------|-3----3------3-|---------------|---------------|
I ne----ed you----
|-0--!----0-!---|---------------|-0--!---|---------|-0--!---|-2--!----2-!---|
|-1--!----1-!---|-0--!----0-!---|-1--!---|-0--!----|-1--!---|-3--!----3-!---|
|-0--!----0-!---|-0--!----0-!---|-2--!---|-0--!----|-2--!---|-2--!----2-!---|
|---------------|-0--!----0-!---|--------|-0--!----|-3----3-|-0----0------0-|
|-3----3------3-|---------------|-0----0-|---------|--------|---------------|
|---------------|-3----3------3-|--------|-3----3--|--------|---------------|
I know deep within my heart It doesn't matter if it's wrong or right I really need you
|--------|-0--!---|
|-0--!---|-2--!---|
|-0--!---|-2--!---|
|-0--!---|--------|
|--------|-0----0-|
|-3----3-|--------|
Ohh.......
|-2--!----2-!---|-0--!----0-!---|-2--!----2-!---|---------------|
|-3--!----3-!---|-2--!----2-!---|-3--!----3-!---|-0--!----0-!---|
|-2--!----2-!---|-2--!----2-!---|-2--!----2-!---|-0--!----0-!---|
|-0----0------0-|---------------|---------------|-0--!----0-!---|
|---------------|-0----0------0-|-2----2------2-|---------------|
|---------------|---------------|---------------|-3----3------3-|
I need you tonight I need you right now
(I need you, oh I need you baby) (It's gotta be this, it's gotta be this)
|-2--!----2-!---|-0--!----0-!---|-2--!---|-0-!---|--------------------|
|-3--!----3-!---|-2--!----2-!---|-3--!---|-2-!---|-0--!----0-!---0----|
|-2--!----2-!---|-2--!----2-!---|-2--!---|-2-!---|-0--!----0-!---0----|
|-0----0------0-|---------------|--------|-------|-0--!----0-!---2----|
|---------------|-0----0------0-|-2----2-|-0---0-|--------------------|
|---------------|---------------|--------|-------|-3----3------2-0----|
I know deep within my heart No, it doesn't matter if it's wrong or it's right
|-0--------|
|-2--------|
|-2--------|
|----------|
|-0--------|
|----------|
All I know is baby...
|-2---------|
|-3---------|
|-2---------|
|-0---------|
|-----------|
|-----------|
I really need you tonight...

From: V.Chiang




Ваше мнение



Капча