From Roger Hand Jul 20 '94 at 10:44 pm -420
Return-Path:
Date: Wed, 20 Jul 1994 22:44:29 -0700
To: [email protected]
Subject: CRD: You Ain't Seen Nothing Yet - BTO [changed]
X-Newsreader: NN version 6.5.0 #1 (NOV)
Subject: CRD.."You Ain't Seen Nothing Yet"
By BTO (Bachman Turner Overdrive)
Song written by Randy Bachman (Top Soil Music - 1975)
Originally transcribed by Mark P. Trepanier ([email protected])
Changes made by Roger Hand ([email protected])
Note: This song is tricky to write out due to the stuttering, and extra
Words added by Randy Bachman. It's probably not perfect, but its real
Close. It's a fun song to play! Enjoy!! Use a stereo chorus if you have
One.
INTRO: Play A-G-D (2X),Theres a little solo in there too!
A G D
E----9-----------7------5---
B---10-----------8------7---
G----9-----------7------7---
D---11-----------9------7---
A---12----------10------5---
E---------------------------
A G D
I met a devil woman
A G D
She took my heart away
A G D
She said I had it coming to me
A G D
But I wanted it that way
D F G
I think that any love is good love
D F G
E---5-----------8-----10--
B---7----------10-----12--
G---7----------10-----12--
D---7----------10-----12--
A---5-----------8-----10--
E-------------------------
A C#m F#m
So I took what I could get ooh..ooh
Bm7 D9
She looked at me with big brown eyes and said...
A C#m F#m Bm7 D9
E----9-------9------9----9---------------7--------14----- -10-
B---10-------9-----10----9->-10----------7--------15----- --7-
G----9-------9-----11----9->-11----------7--------14----- or --9-
D---11-------9-----11----9->-11----------7--------14----- --7-
A---12------11------9----9---------------9--------------- --7-
E------------9---------------------------7--------------- ----
REFRAIN:(Use power chords w/distortion)
A E D
You ain't seen nothin' yet
A E D A E D
E---o-------o----2----- E---5-------4----5-----
B---2-------o----3----- B---5-------5----7-----
G---2-------1----2----- or G---6-------4----7-----
D---2-------2----o----- D---7-------6----7-----
A---o-------2---------- A---7-------7----5-----
E-----------o---------- E---5------------------
A E D
B-B-Baby you just ain't seen nothin' yet
A E D
Here's something you're never gonna forget
A E D (C#m B A) I think! (?)
B-B-Baby you just ain't seen n-n-nothin' yet (you ain't been around)
A G D
And now I'm feelin' better
'Cause I found out for sure
She took me to her doctor
And he told me of a cure
D F G
He said that any love is good love
A C#m F#m
So I took what I could get, yes I took what I could get
Bm7 D9
And then she looked at me with big brown eyes..said
REPEAT REFRAIN, add SOLO
D F G
He said that any love is good love etc...(Finish above verse again)
REPEAT REFRAIN...END Take is easy!!!! Mark......
Rock on! Roger . . .
Roger Hand [email protected] CIS: 73520,3506
"Life is the only thing worth living for!"
--




Ваше мнение



Капча