El Loco - Babasonicos

E---------------------------------------------------->
B---------------------------------------------------->
G---------------------------------------------------->
D---------------------------------------------------->
A----------------7----7--9/12--9----SIGUE ABAJO------>
e--5-5-7-5-7-9-9----9-------------------------------->

E---------------------------------------------------->
B---------------------------------------------------->
G---------------------------------------------------->
D---------------------------------------------------->
A----7--9/12-9-7-9-7--------------------------------->
e--9-------------------9-7-9-7----5-7-5-7/9-7-5-7-5-->

/='desplazar desde *'/'hasta *'





Ваше мнение



Капча