From: Timo Smiatek
Bцhse Onkelz
'Terpentin'
[aus Viva Los Tioz]
Tune down 1/2 !!
Intro:
Beginn of Riff I & II & III
|-------------------------------------------------------------------
|-------------------------------------------------------------------
|-------------------------------------------------------------------
|-------------------------------------------------------------------
|-5--4--5--5--4--5--7--7--5--4--5--5--4--5--7--5--4--5--5--4--5--7--
|-------------------------------------------------------------------
End of Riff I:
--------------|
--------------|
--------------|
--------------|
--5--4--2-----|
-----------5--|
End of Riff II:
--------------|
--------------|
--------------|
--4-----------|
-----7--5--4--|
--------------|
End of Riff III:
-----------------|
-----------------|
-----------------|
-----------------|
--5--4--5--7--9--|
-----------------|
Riff IV (for Chorus):
|--------------------------------------------------------------------
|--------------------------------------------------------------------
|--7--7--7--7--7--7--7--7--7--7--7--4--4--4--4--4--4--4--4--4--4--4--
|--7--7--7--7--7--7--7--7--7--7--7--4--4--4--4--4--4--4--4--4--4--4--
|--5--5--5--5--5--5--5--5--5--5--5--2--2--2--2--2--2--2--2--2--2--2--
|--------------------------------------------------------------------
-----------------------------------------------------|
-----------------------------------------------------|
-----------------------------------------------------|
--5--5--5--5--5--5--5--5--5--5--5--7--5/7--5/7--5/7--|
--5--5--5--5--5--5--5--5--5--5--5--7--5/7--5/7--5/7--|
--3--3--3--3--3--3--3--3--3--3--3--5--3/5--3/5--3/5--|
Note: In verse just keep playing Riff IV but don't slide at the end
From F# to G# and just stay in G#, that's all. (Remember tune down 1/2)
Riff V:
|--------------------------------------------------------------------
|--------------------------------------------------------------------
|--------------------------------------------------------------------
|--4--4--4--4--4--4--4--4--4--4--4--5--5--5--5--5--5--5--5--5--5--5--
|--4--4--4--4--4--4--4--4--4--4--4--5--5--5--5--5--5--5--5--5--5--5--
|--2--2--2--2--2--2--2--2--2--2--2--3--3--3--3--3--3--3--3--3--3--3--
--------------------------------------------------------------------|
--------------------------------------------------------------------|
--------------------------------------------------------------------|
--2--2--2--2--2--2--2--2--2--2--2--7--7--7--7--7--7--7--7--7--7--7--|
--2--2--2--2--2--2--2--2--2--2--2--7--7--7--7--7--7--7--7--7--7--7--|
--0--0--0--0--0--0--0--0--0--0--0--5--5--5--5--5--5--5--5--5--5--5--|
Key:
Intro
1x Riff I
1x Riff II
Riff IV as rhythm guitar to Riff I & II
---------------------------------------
Verse I
2x Riff IV
---------------------------------------
1x Riff I
Riff IV as rhythm guitar
---------------------------------------
Verse II
2x Riff IV
---------------------------------------
Chorus
2x Riff IV
---------------------------------------
1x Riff I
Riff IV as rhythm guitar
---------------------------------------
Verse III
2 x Riff IV
---------------------------------------
Chorus
2 x Riff IV
---------------------------------------
1 x Riff III
---------------------------------------
1 x Riff V
---------------------------------------
Chorus
Riff IV




Ваше мнение



Капча