E: Sat, 14 Mar 1998 11:53:25 +0100
Subject: b/bohse_onkelz/nichts_ist_fur_die_ewigkeit.crd
From: [email protected] (Huhmann)

I send you a Tab of a great Song from a great Band:
"Nichts ist fьr die Ewigkeit" written by "Bцhse Onkelz"
Band: Bцhse Onkelz
Titel: Nichts ist fьr die Ewigkeit
Dies ist eine Mischung aus dem Original von der "Es ist soweit"
Und der Live-Version von der "Live in Dortmund".
Es ist nicht 100% korrekt but... it works.
Chorous:
Listen to the song to get the rhythm
E G5
Nichts ist fьr die Ewigkeit nichts bleibt wie es war
A5 C5
Nur vier Jungs aus Frankfurt sind schon lange lange da
E G5
Die Welt hat uns verlangt sie hat nichts besseres verdient
A5 H5 G5
Habt ihr noch nicht erkannt warum es Bцhse Onkelz gibt
Git. I
E----------------------------------------------------------
H----------------------------------------------------------
G----------------------------------------------------------
D--------------5--4------------------9--7--9---------------
A--------5--7--------7p5-7---------------------------------
E---\7-----------------------------------------------------
Dieser Teil kann auch gut von der
Git.II E5 Rhythmusgitarre gespielt werden
Git.I
E----------------------------------------------------------
H----------------------------------------------------------
G----------------------------------------------------------
D--------------5--4----------------------------------------
A--------5--7--------7p5-3-----------h5p3h5p3h5p3h5p3------
E---\7-----------------------------------------------------
Git.II C5
Git.I
E----------------------------------------------------------
H----------------------------------------------------------
G----------------------------------------------------------
D--------------5--4------------5-5--4-4--------------------
A--------5--7--------5-5--7-7-------------5--7---7--5--7-7-
E---\7-----------------------------------------------------
Git.II D5 E5
E G5 A5 H5 C5 D5 E5
E
H
G 4 5 7 9
D 2 5 7 4 5 7 9
A 2 5 7 2 3 5 7
E 0 3 5
Tapped by Christian Huhmann
Fragen und Kommentare an: [email protected]




Ваше мнение



Капча