Titel: Lt. Stoned
Interpret: Bцhse Onkelz
Musik: Weidner, Rцhr, Schorowsky
Album: Wir ham' noch lange nicht genug (1991)
Tabbed by LUTZ NAUMANN ([email protected])
INTRO
Jam E-mixolydisch
E Whammy Bar Feedback BU HO
E|-----------------|--0~~~~~~~~~~|~~0~~~~~~~~~~~~~~~~~~~~~~~~~~~~~~|~~0------|---------------------|-----|E
H|---------12--12--|-------------|---------------------------------|---------|--15--(17)-----------|-----|H
G|---------12--12--|-------------|---------------------------------|---------|---------------------|-----|G
D|-----------------|-------------|---------------------------------|---------|------------------5~~|~~5--|D
A|--7~~~7----------|-------------|--17-17-17-17-17-17-17-17-17-17--|--17-17--|------------5--7-----|-----|A
E|--0~~~0----------|-------------|---------------------------------|---------|---------------------|-----|E
Wha-Wha Pick Scraping
SL--
E|-------------------------|--------------------------|-----------|-----15--12------------------|--------------|------|E
H|-------------------------|--------------------------|-----------|-------------15--15--12------|--------------|------|H
G|-------------------------|--------------------------|-----------|-------------------------14--|--12----------|------|G
D|----9--12--9--12--9--12--|--9--12--9--12--9--12--9--|--5--------|-----------------------------|------14~~14~~|~~14--|D
A|-------------------------|--------------------------|-----7~~7~~|~~7--------------------------|--------------|------|A
E|-------------------------|--------------------------|-----------|-----------------------------|--------------|------|E
THEMA
Fism E 3x
E|-----------------|-----------------------|-----------------------|-----|E
H|-----------------|-----------------------|-----------------------|-----|H
G|-----------------|-----------------------|-----------------------|-----|G
D|--7--------------|--7--------------------|--7--------------------|--9--|D
A|-----9--7--9~~9--|-----9--7--9~~9--------|-----9--7--9~~9--------|--7--|A
E|-----------------|-----------------9--7--|-----------------9--7--|-----|E
2nd Time Full Band in
SOLO
BU BU BU PO BU PO BU PO BU PO BU PO
E|----------------|------------------------------------|----------12--12--15--12----------12--15--12-----------12--15--12-----------12--15--12-----------12--15--12--------------|E
H|--15-(17)~(17)--|--15-(17)-(17)-(17)-(17)-(17)-(17)--|--15-(17)-----------------15-(17)--------------15-(17)--------------15-(17)--------------15-(17)-------------15--12------|H
G|----------------|------------------------------------|---------------------------------------------------------------------------------------------------------------------14--|G
D|----------------|------------------------------------|-------------------------------------------------------------------------------------------------------------------------|D
A|----------------|------------------------------------|-------------------------------------------------------------------------------------------------------------------------|A
E|----------------|------------------------------------|-------------------------------------------------------------------------------------------------------------------------|E
Whammy Bar
BU PO PO PO PO PO PO PO PO BU
E|---------------------------|--15--12--15--12--15--12--15--12--15--12--15--12--15--12--15--12--|----------------------------------------------------------|E
H|---------------------------|------------------------------------------------------------------|--15-(17)-15--14--12------12------------------------------|H
G|--14-(16)~(16)-14--12------|------------------------------------------------------------------|----------------------14------14--12--14--14--12----------|G
D|-----------------------14--|------------------------------------------------------------------|--------------------------------------------------14--12--|D
A|---------------------------|------------------------------------------------------------------|----------------------------------------------------------|A
E|---------------------------|------------------------------------------------------------------|----------------------------------------------------------|E
THEMA
BU Fism
E|--------------------------------------|------|-----------------|-----------------------|E
H|--------------------------------------|------|-----------------|-----------------------|H
G|--12--11--12--14--12-(14)-------------|------|-----------------|-----------------------|G
D|--------------------------14--12--14--|--14--|--7--------------|--7--------------------|D
A|--------------------------------------|------|-----9--7--9~~9--|-----9--7--9~~9--------|A
E|--------------------------------------|------|-----------------|-----------------9--7--|E
INTERLUDE
E Fism
E|----------------------|-----|-----------------------------------|E
H|----------------------|-----|--2--2--2--2--2--2--2--2--2--2--2--|H
G|----------------------|-----|--2--2--2--2--2--2--2--2--2--2--2--|G
D|--7-------------------|--9--|-----------------------------------|D
A|----9--7--9~~9--------|--7--|-----------------------------------|A
E|----------------9--7--|-----|-----------------------------------|E
Muted
E5
E|---------------------------------------------|-----------------------------------|--------------------------------------------------|E
H|--2--2--2--2--2--2--2--2--2--12--12--12--12--|--2--2--2--2--2--2--2--2--2--2--2--|--12--12--12--12--12--12--12--12--12--12--12--12--|H
G|--2--2--2--2--2--2--2--2--2--12--12--12--12--|--2--2--2--2--2--2--2--2--2--2--2--|--12--12--12--12--12--12--12--12--12--12--12--12--|G
D|---------------------------------------------|-----------------------------------|--------------------------------------------------|D
A|---------------------------------------------|-----------------------------------|--------------------------------------------------|A
E|---------------------------------------------|-----------------------------------|--------------------------------------------------|E
THEMA
Fism E
E|---------------------|----------------------------|----------------------------|-----|E
H|--10-----------------|--10------------------------|--10------------------------|-----|H
G|------11--9--11~~11--|------11--9--11~~11---------|------11--9--11~~11---------|-----|G
D|---------------------|---------------------11--9--|---------------------11--9--|--9--|D
A|---------------------|----------------------------|----------------------------|--7--|A
E|---------------------|----------------------------|----------------------------|-----|E
THEMA VARIATION
Fism E
E|----------------------|-----------------------------|-----------------------------|-----|E
H|--10------------------|--10-------------------------|--10-------------------------|-----|H
G|------11---9--11~~11--|------11---9--11~~11---------|------11---9--11~~11---------|-----|G
D|--11------------------|--11------------------11--9--|--11------------------11--9--|--9--|D
A|------12--11--12~~12--|------12--11--12~~12---------|------12--11--12~~12---------|--7--|A
E|----------------------|-----------------------9--7--|-----------------------9--7--|-----|E
2 Guitars
INTERLUDE
Fism
E|-----------------------------------|---------------------------------------------|-----------------------------------|E
H|--2--2--2--2--2--2--2--2--2--2--2--|--2--2--2--2--2--2--2--2--2--12--12--12--12--|--2--2--2--2--2--2--2--2--2--2--2--|H
G|--2--2--2--2--2--2--2--2--2--2--2--|--2--2--2--2--2--2--2--2--2--12--12--12--12--|--2--2--2--2--2--2--2--2--2--2--2--|G
D|-----------------------------------|---------------------------------------------|-----------------------------------|D
A|-----------------------------------|---------------------------------------------|-----------------------------------|A
E|-----------------------------------|---------------------------------------------|-----------------------------------|E
Muted
Organ Solo
THEMA VARIATION
E5 Fism
E|--------------------------------------------------|----------------------|-----------------------------|E
H|--12--12--12--12--12--12--12--12--12--12--12--12--|--10------------------|--10-------------------------|H
G|--12--12--12--12--12--12--12--12--12--12--12--12--|------11---9--11~~11--|------11---9--11~~11---------|G
D|--------------------------------------------------|--11------------------|--11------------------11--9--|D
A|--------------------------------------------------|------12--11--12~~12--|-- ---12--11--12~~12---------|A
E|--------------------------------------------------|----------------------|-----------------------9--7--|E
SOLO
E Fism PO PO PO PO PO PO PO PO
E|-----------------------------|-----|-------------------------------------------------------------|E
H|--10-------------------------|-----|--15--14--14--13--13--12--12--11--11--10--10--9--9--8--8--7--|H
G|------11---9--11~~11---------|-----|-------------------------------------------------------------|G
D|--11------------------11--9--|--9--|-------------------------------------------------------------|D
A|------12--11--12~~12---------|--7--|-------------------------------------------------------------|A
E|-----------------------9--7--|-----|-------------------------------------------------------------|E
E Fism
PO PO PO PO PO PO PO PO PO PO PO PO BU PO BU
E|---------------------------------------------------|------------------------------|-----|---------------------------|E
H|---------------------------------------------------|------------------------------|-----|--15-(17)-15--12--15-(17)--|H
G|--10--9--9--8--8--7--7--6--6--5--7--6--8--7--9--8--|------------------------------|-----|---------------------------|G
D|---------------------------------------------------|--10--9--9--8--8--7--7--6-----|-----|---------------------------|D
A|---------------------------------------------------|---------------------------7~~|~~7--|---------------------------|A
E|---------------------------------------------------|------------------------------|-----|---------------------------|E
E
SL-- PO PO BU BU BU BU BU BU BU HO PO BU BU BU BU BU BU BU
E|--15--12------12----------------------------------------------------------|----------------------------------------------------------------------|----------|E
H|----------15------15--12--12------12------12------12------12------12------|----------12--15--12--12------12------12------12------12------12------|--12------|H
G|--------------------------14-(16)-14-(16)-14-(16)-14-(16)-14-(16)-14-(16)-|--14-(16)-------------14-(16)-14-(16)-14-(16)-14-(16)-14-(16)-14-(16)-|--14-(16)-|G
D|--------------------------------------------------------------------------|----------------------------------------------------------------------|----------|D
A|--------------------------------------------------------------------------|----------------------------------------------------------------------|----------|A
E|--------------------------------------------------------------------------|----------------------------------------------------------------------|----------|E
Whammy Bar




Ваше мнение



Капча