by danny deeder
--x-x-x-x-x--x
--5-5-5-5-8--5
--7-7-7-7-10-7 intro x 8
--7-7-7-7-10-7
--x-x-x-x-x--x
--x-x-x-x-x--x

couplet find the rythm your self too much work too explain and it
changes later on but is stay the same chords!!!!!!!!!

--0- -x- -1- -x-
--5- -1- -3- -3-
--7- -3- -3- -5-
--7- -3- -x- -5-
--x- -x- -x- -x-
--x- -x- -x- -x-
tokkelen
----------------------------
--5------4-------3------2---
---7---7---7---7---5--5---5-
----7--------7------5-------
----------------------------
----------------------------
find the rythm her also your self if you know the song than it is easy
--0- -0- -0- -0-
--5- -6- -3- -0-
--7- -8- -5- -2-
--7- -8- -5- -2-
--x- -x- -x- -x-
--x- -x- -x- -x-last chord let it gain away and when it is the bass
line is coming

bass line on guitar
---------------
-7-8-5-7-3-5-2-
---------------
---------------
---------------
---------------
the solo isn't that hard but too much too explain but it is
10th position solo so find out!!!!!!!!!




Ваше мнение



Капча