Intro:
----------0----------0-
------2----------2-----
----2---2------2---2---
--0----------0---------
-----------------------
-----------------------

Ьbergang auf Verse

2x

------------------------
------------------------
-----------5-7-9--5-7-9-
-----------3-5-7--3-5-7-
-7--7-5-7---------------
-5--5-3-5---------------

2x

-------------------------------------
---------------------------------------
---------------------------------------
--------------------00-2-3-0-----------
-0-2-3-0--00-2-3-0---------------------
------------------------------00-3-4-0-

Ьbergang auf Chor

A - C - B - C - A

Chor
---------
---------
---------
---5-4-5-
-7-5-4-5-
-5-------




Ваше мнение



Капча