Artist: Axel Rudi Pell
Song: Voodoo Nights
Album: The Masquerade Ball

Tabbed by: Christian Johansson
E-mail: [email protected]

Tune down 1/2 step!

Intro:
Guitar 1:
E-------------------------I-
B-------------------------I-
G------------------7------I- (x4)
D--9---5---7---9---5---5--I-
A--7---3---5---7-------3--I-
E-------------------------I-
Guitar 2:
E-----------------------------------------------I-
B-----------------------------------------------I-
G-----------------------------------------------I- (x4)
D----4-5---4-5---7-5-4-----4-5---4-5---7-5-4----I-
A--7-----7-----5-------5-7-----7-----3----------I-
E-----------------------------------------------I-
1: Donґt turn around...
2: Youґre cold as ice...
E------------------------------------------------I-
B------------------------------------------------I-
G--------------7-7--------------------7-7--------I-
D--9--5--7--9--5-5--7--7--9--5--7--9--5-5--7--7--I-
A--7--3--5--7-------5--5--7--3--5--7-------5--5--I-
E------------------------------------------------I-
(slide between the chords)
E-------------------------------------------I-
B-------------------------------------------I-
G----------------------------------7-7------I- (x2)
D--9-9-9-9-9-5-7-7-7-7-7-9-9-9-9-9-5-5-7-7--I- (slide between
A--7-7-7-7-7-3-5-5-5-5-5-7-7-7-7-7-----5-5--I- chords)
E-------------------------------------------I-
Backseat Rodeo...
E------------------------------------------------------I-
B----5--------3--------------5--------3----------------I-
G--5---5----4---4----2-----5---5----4---4--------------I-
D--5-----5--4-----4--2--5--5-----5--4-----4--7-7-7-7->-I-
A--3--------2--------0--5--3--------2--------5-5-5-5->-I-
E-----------------------3------------------------------I-
Chorus: Voodoo Nights...
E------------------------------------I-
B------------------------------------I-
G--9--5--7--9--5--7------------------I- (x2)
D--9--5--7--9--5--7-7-7-7-7-7-7-7-7--I-
A--7--3--5--7--3--5-5-5-5-5-5-5-5-5--I-
E------------------------------------I-




Ваше мнение



Капча