Axel Rudi Pell
Ride The Rainbow
From: Oceans Of Time
--------------------
Tabbed by: Christian Johansson
E- mail: [email protected]
Tune down 1/2 step!
Intro:
E-------------------------------------------------------------------I-|
B-------------------------------------------------------------------I-|
G-------9-10-9-------5-7-4-------9-10-9--5-7-4----------------------I-|
D-------7-7--7-------7-7-5-------7-7--7--7-7-5----------------------I-|
A--0-0----------0-0---------0-0-------------------------------------I-|
E-------------------------------------------------------------------I-|
Repeat 4 times!
Verse:
We?re riding through the times...
E-------------------------------------------------------------------I-|
B-------------------------------------------------------------------I-|
G-------------------------------------------------9-7---------7-----I-|
D-----------------------------------------------------10-9-10-------I-|
A-0-0-0-0-0-0-0-0-0-0-0-0-0-0-0-0-0-0-0-0-0-0-0-0-------------------I-|
E-------------------------------------------------------------------I-|
E-------------------------------------------------------------------I-|
B-------------------------------------------------------------------I-|
G-------------------------------------------------------------------I-|
D-------------------------------------------------------------------I-|
A-0-0-0-0-0-0-0-0----------------------------------7-5--------------I-|
E-----------------3-3-3-3-3-3-3-3-1-1-1-1-1-1-1-1------8-7----------I-|
Repeat twice!
We?re riding the wind...
E-------------------------------------------------------------------I-|
B-------------------------------------------------------------------I-|
G-------------------------------------------------------------------I-|
D-9-9-----9-----9-5-5-----5-----5-7-7-----7-----7-9-9-----9-----9---I-|
A-9-9-----9-----9-5-5-----5-----5-7-7-----7-----7-9-9-----9-----9---I-|
E-7-7-7-7-7-7-7-7-3-3-3-3-3-3-3-3-5-5-5-5-5-5-5-5-7-7-7-7-7-7-7-7---I-|
E-------------------------------------------------------------------I-|
B-------------------------------------------------------------------I-|
G-------------------------------------------------------------------I-|
D-9-9-----9-----9-5-5-----5-----5-7-7-----7-----7-9-9-----9-----9-4-I-|
A-9-9-----9-----9-5-5-----5-----5-7-7-----7-----7-9-9-----9-----9-4-I-|
E-7-7-7-7-7-7-7-7-3-3-3-3-3-3-3-3-5-5-5-5-5-5-5-5-7-7-7-7-7-7-7-7-2-I-|
Repeat once!
Chorus:
Oh ho ho hoh, ho ho hohohoh, we ride the rainbow...
Guitar 1
E-------------------------------------------------------------------I-|
B-------------------------------------------------------------------I-|
G-------------------------------------------------------------------I-|
D-------------------------------------------------------------------I-|
A-0-0-0-0-0-0-0-0---------------------------------------------------I-|
E-----------------3-3-3-3-3-3-3-3-1-1-1-1-1-1-1-1-3-3-3-3-4-4-4-4---I-|
Guitar 2
E-------------------------------------------------------------------I-|
B-------------------------------------------------------------------I-|
G-------------------------------------------------------------------I-|
D-7--10--9------7--10--9------7--7--10--9------7--10--9--7--6-------I-|
A-----------10------------10---------------10-----------------------I-|
E-------------------------------------------------------------------I-|
Repeat 4 times!
E-------------------------------------------------------------------I-|
B-------------------------------------------------------------------I-|
G-------9-10-9-------5-7-4-------9-10-9--5-7-4----------------------I-|
D-------7-7--7-------7-7-5-------7-7--7--7-7-5----------------------I-|
A--0-0----------0-0---------0-0-------------------------------------I-|
E-------------------------------------------------------------------I-|
Repeat twice!
Verse:
The northern lights...
E-------------------------------------------------------------------I-|
B-------------------------------------------------------------------I-|
G-------------------------------------------------9-7---------7-----I-|
D-----------------------------------------------------10-9-10-------I-|
A-0-0-0-0-0-0-0-0-0-0-0-0-0-0-0-0-0-0-0-0-0-0-0-0-------------------I-|
E-------------------------------------------------------------------I-|
E-------------------------------------------------------------------I-|
B-------------------------------------------------------------------I-|
G-------------------------------------------------------------------I-|
D-------------------------------------------------------------------I-|
A-0-0-0-0-0-0-0-0----------------------------------7-5--------------I-|
E-----------------3-3-3-3-3-3-3-3-1-1-1-1-1-1-1-1------8-7----------I-|
Repeat twice!
We?re riding the wind...
E-------------------------------------------------------------------I-|
B-------------------------------------------------------------------I-|
G-------------------------------------------------------------------I-|
D-9-9-----9-----9-5-5-----5-----5-7-7-----7-----7-9-9-----9-----9---I-|
A-9-9-----9-----9-5-5-----5-----5-7-7-----7-----7-9-9-----9-----9---I-|
E-7-7-7-7-7-7-7-7-3-3-3-3-3-3-3-3-5-5-5-5-5-5-5-5-7-7-7-7-7-7-7-7---I-|
E-------------------------------------------------------------------I-|
B-------------------------------------------------------------------I-|
G-------------------------------------------------------------------I-|
D-9-9-----9-----9-5-5-----5-----5-7-7-----7-----7-9-9-----9-----9-4-I-|
A-9-9-----9-----9-5-5-----5-----5-7-7-----7-----7-9-9-----9-----9-4-I-|
E-7-7-7-7-7-7-7-7-3-3-3-3-3-3-3-3-5-5-5-5-5-5-5-5-7-7-7-7-7-7-7-7-2-I-|
Repeat once!
Chorus:
Oh ho ho hoh, ho ho hohohoh, we ride the rainbow...
Guitar 1
E-------------------------------------------------------------------I-|
B-------------------------------------------------------------------I-|
G-------------------------------------------------------------------I-|
D-------------------------------------------------------------------I-|
A-0-0-0-0-0-0-0-0---------------------------------------------------I-|
E-----------------3-3-3-3-3-3-3-3-1-1-1-1-1-1-1-1-3-3-3-3-4-4-4-4---I-|
Guitar 2
E-------------------------------------------------------------------I-|
B-------------------------------------------------------------------I-|
G-------------------------------------------------------------------I-|
D-7--10--9------7--10--9------7--7--10--9------7--10--9--7--6-------I-|
A-----------10------------10---------------10-----------------------I-|
E-------------------------------------------------------------------I-|
Repeat 4 times!
Break:
E------I---------------------I----------------------------------------I-|
B------I---------------------I----------------------------------------I-|
G------I---------2--2--------I---------2--2---------------------------I-|
D--2---I---4--4--2--2--2--2--I---4--4--2--2--2--2---------------------I-|
A--2---I---4--4--0--0--2--2--I---4--4--0--0--2--2---------------------I-|
E--0---I---2--2--------0--0--I---2--2--------0--0---------------------I-|
Repeat once!
Rhythm guitar during solo:
E-------------------------------------------------------------------I-|
B-------------------------------------------------------------------I-|
G-------------------------------------------------------------------I-|
D-9-9-----9-----9-5-5-----5-----5-7-7-----7-----7-9-9-----9-----9---I-|
A-9-9-----9-----9-5-5-----5-----5-7-7-----7-----7-9-9-----9-----9---I-|
E-7-7-7-7-7-7-7-7-3-3-3-3-3-3-3-3-5-5-5-5-5-5-5-5-7-7-7-7-7-7-7-7---I-|
E-------------------------------------------------------------------I-|
B-------------------------------------------------------------------I-|
G-------------------------------------------------------------------I-|
D-9-9-----9-----9-5-5-----5-----5-7-7-----7-----7-9-9-----9-----9---I-|
A-9-9-----9-----9-5-5-----5-----5-7-7-----7-----7-9-9-----9-----9---I-|
E-7-7-7-7-7-7-7-7-3-3-3-3-3-3-3-3-5-5-5-5-5-5-5-5-7-7-7-7-7-7-7-7---I-|
E-------------------------------------------------------------------I-|
B-------------------------------------------------------------------I-|
G-------------------------------------------------------------------I-|
D-9-9-----9-----9-5-5-----5-----5-7-7-----7-----7-9-9-----9-----9---I-|
A-9-9-----9-----9-5-5-----5-----5-7-7-----7-----7-9-9-----9-----9---I-|
E-7-7-7-7-7-7-7-7-3-3-3-3-3-3-3-3-5-5-5-5-5-5-5-5-7-7-7-7-7-7-7-7---I-|
E-------------------------------------------------------------------I-|
B-------------------------------------------------------------------I-|
G-------------------------------------------------------------------I-|
D-9-9-----9-----9-5-5-----5-----5-7-7-----7-----7-9-9-----9-----9-4-I-|
A-9-9-----9-----9-5-5-----5-----5-7-7-----7-----7-9-9-----9-----9-4-I-|
E-7-7-7-7-7-7-7-7-3-3-3-3-3-3-3-3-5-5-5-5-5-5-5-5-7-7-7-7-7-7-7-7-2-I-|
Repeat once!
Chorus:
Oh ho ho hoh, ho ho hohohoh, we ride the rainbow...
Guitar 1
E-------------------------------------------------------------------I-|
B-------------------------------------------------------------------I-|
G-------------------------------------------------------------------I-|
D-------------------------------------------------------------------I-|
A-0-0-0-0-0-0-0-0---------------------------------------------------I-|
E-----------------3-3-3-3-3-3-3-3-1-1-1-1-1-1-1-1-3-3-3-3-4-4-4-4---I-|
Guitar 2
E-------------------------------------------------------------------I-|
B-------------------------------------------------------------------I-|
G-------------------------------------------------------------------I-|
D-7--10--9------7--10--9------7--7--10--9------7--10--9--7--6-------I-|
A-----------10------------10---------------10-----------------------I-|
E-------------------------------------------------------------------I-|
Repeat 8 times!
E-------------------------------------------------------------------I-|
B-------------------------------------------------------------------I-|
G-------9-10-9-------5-7-4-------9-10-9--5-7-4----------------------I-|
D-------7-7--7-------7-7-5-------7-7--7--7-7-5----------------------I-|
A--0-0----------0-0---------0-0-------------------------------------I-|
E-------------------------------------------------------------------I-|
Repeat 4 times!
The final chords:
E-------------------------------------------------------------------I-|
B-------------------------------------------------------------------I-|
G--5-7-4--5-7-4--5-7-4----------------------------------------------I-|
D--7-7-5--7-7-5--7-7-5--5--7--7--5--7-------------------------------I-|
A-----------------------5--7--7--5--7-------------------------------I-|
E-----------------------3--5--5--3--5-------------------------------I-|
You probably ask yourself why I haven?t tab the solo:
1: If you want to be a good guitar player you must improvise!
2: It would take too much time to tab!
3: Don?t copy anyone else, just feel the inspiration!
Well: SHUT UP AND PLAY!!!
Have a nice time! / Christian Johansson




Ваше мнение



Капча