Axel Rudi Pell
Pay The Price
From: Oceans Of Time
--------------------
Tabbed by: Christian Johansson
E- mail: [email protected]
Tune down 1/2 step!
Intro:
E-------------------------------------------------------------------I-
B-------------------------------------------------------------------I-
G----------2-------2-------2------2---4---2---4---2---1-------------I-
D--2---4---2---4---2---4---2---4--2---4---2---4---2---2-------------I-
A--2---4-------4-------4-------4------------------------------------I-
E-------------------------------------------------------------------I-
E-------------------------------------------------------------------I-
B-------------------------------------------------------------------I-
G----------2-------2-------2-------2--------------------------------I-
D--2---4---2---4---2---4---2---4---2---2---2------------------------I-
A--2---4-------4-------4-------4-------2---2------------------------I-
E-------------------------------------------------------------------I-
Repeat 4 times!
Verse:
Struck down, time is late...
E-------------------------------------------------------------------I-
B-------------------------------------------------------------------I-
G-------------------------------------------------------------------I-
D-------------------------------------------------------------------I-
A-------------------------------------------------------------------I-
E-2-2-2-2-2-2-2-2-2-2-2-2-2-2-2-2-2-2-2-2-2-2-2-2-2-2-2-2-2-2-2-2---I-
E-------------------------------------------------------------------I-
B-----------------------------------3----5--------------------------I-
G-----------------------------------2----4--------------------------I-
D-----------------------------------0----2--------------------------I-
A-------------------------------------------------------------------I-
E-2-2-2-2-2-2-2-2-2-2-2-2-2-2-2-2-----------------------------------I-
Repeat twice!
E-------------------------------------------------------------------I-
B-------------------------------------------------------------------I-
G----------2-------2-------2------2---4---2---4---2---1-------------I-
D--2---4---2---4---2---4---2---4--2---4---2---4---2---2-------------I-
A--2---4-------4-------4-------4------------------------------------I-
E-------------------------------------------------------------------I-
E-------------------------------------------------------------------I-
B-------------------------------------------------------------------I-
G----------2-------2-------2-------2--------------------------------I-
D--2---4---2---4---2---4---2---4---2---2---2------------------------I-
A--2---4-------4-------4-------4-------2---2------------------------I-
E-------------------------------------------------------------------I-
Repeat twice!
Verse:
Shots in the dark...
E-------------------------------------------------------------------I-
B-------------------------------------------------------------------I-
G-------------------------------------------------------------------I-
D-------------------------------------------------------------------I-
A-------------------------------------------------------------------I-
E-2-2-2-2-2-2-2-2-2-2-2-2-2-2-2-2-2-2-2-2-2-2-2-2-2-2-2-2-2-2-2-2---I-
E-------------------------------------------------------------------I-
B-----------------------------------3----5--------------------------I-
G-----------------------------------2----4--------------------------I-
D-----------------------------------0----2--------------------------I-
A-------------------------------------------------------------------I-
E-2-2-2-2-2-2-2-2-2-2-2-2-2-2-2-2-----------------------------------I-
Repeat twice!
They come from behind...
E--------------------------I----------------------------------------I-
B--------------------------I----------------------------------------I-
G---5----4----2-----9---7--I---5----4----2----9---7---5-------------I-
D---7----5----3----10---9--I---7----5----3---10---9---7---2---------I-
A--------------------------I------------------------------2---------I-
E--------------------------I------------------------------0---------I-
Repeat once!
Chorus:
Oh ho ho ho Oh ho ho ho Oh ho ho ho pay the price for love...
E-------------------------------------------------------------------I-
B------3-------5-------3-------5-------3-------5---3--------5-------I-
G------2---2---4-------2---2---4-------2---2---4---2--------4-------I-
D--4---0---2---2---4---0---2---2---4---0---2---2---0--------2-------I-
A--4-------0-------4-------0-------4-------0------------------------I-
E--2---------------2---------------2--------------------------------I-
Repeat twice!
E-----------------------------------I- The last chords
B---3-------------------------------I- the second time!
G---2-----------------2-------------I-
D---0-----------------3-------------I-
A-----------------------------------I-
E-----------------------------------I-
E-------------------------------------------------------------------I-
B-------------------------------------------------------------------I-
G----------2-------2-------2------2---4---2---4---2---1-------------I-
D--2---4---2---4---2---4---2---4--2---4---2---4---2---2-------------I-
A--2---4-------4-------4-------4------------------------------------I-
E-------------------------------------------------------------------I-
E-------------------------------------------------------------------I-
B-------------------------------------------------------------------I-
G----------2-------2-------2-------2--------------------------------I-
D--2---4---2---4---2---4---2---4---2---2---2------------------------I-
A--2---4-------4-------4-------4-------2---2------------------------I-
E-------------------------------------------------------------------I-
Repeat twice!
Verse:
On and on we sailed away...
E-------------------------------------------------------------------I-
B-------------------------------------------------------------------I-
G-------------------------------------------------------------------I-
D-------------------------------------------------------------------I-
A-------------------------------------------------------------------I-
E-2-2-2-2-2-2-2-2-2-2-2-2-2-2-2-2-2-2-2-2-2-2-2-2-2-2-2-2-2-2-2-2---I-
E-------------------------------------------------------------------I-
B-----------------------------------3----5--------------------------I-
G-----------------------------------2----4--------------------------I-
D-----------------------------------0----2--------------------------I-
A-------------------------------------------------------------------I-
E-2-2-2-2-2-2-2-2-2-2-2-2-2-2-2-2-----------------------------------I-
Repeat twice!
They come from behind...
E--------------------------I----------------------------------------I-
B--------------------------I----------------------------------------I-
G---5----4----2-----9---7--I---5----4----2----9---7---5-------------I-
D---7----5----3----10---9--I---7----5----3---10---9---7---2---------I-
A--------------------------I------------------------------2---------I-
E--------------------------I------------------------------0---------I-
Repeat once!
Chorus:
Oh ho ho ho Oh ho ho ho Oh ho ho ho pay the price for love...
E-------------------------------------------------------------------I-
B------3-------5-------3-------5-------3-------5---3--------5-------I-
G------2---2---4-------2---2---4-------2---2---4---2--------4-------I-
D--4---0---2---2---4---0---2---2---4---0---2---2---0--------2-------I-
A--4-------0-------4-------0-------4-------0------------------------I-
E--2---------------2---------------2--------------------------------I-
Repeat twice!
E-------------------------------------------------------------------I-
B-------------------------------------------------------------------I-
G----------2-------2-------2------2---4---2---4---2---1-------------I-
D--2---4---2---4---2---4---2---4--2---4---2---4---2---2-------------I-
A--2---4-------4-------4-------4------------------------------------I-
E-------------------------------------------------------------------I-
E-------------------------------------------------------------------I-
B-------------------------------------------------------------------I-
G----------2-------2-------2-------2--------------------------------I-
D--2---4---2---4---2---4---2---4---2---2---2------------------------I-
A--2---4-------4-------4-------4-------2---2------------------------I-
E-------------------------------------------------------------------I-
Repeat twice!
They come from behind...
E---------------------------------I-
B---3------------5----------------I-
G---2------------4----------------I- Repeat once!
D---0------------2----------------I-
A---------------------------------I-
E---------------------------------I-

Rhythm guitar during solo:
GO!!!
E------------------------------------I---------I--------------------I-
B---------2-----------0-----------2--I---------I--3------5----------I-
G-------2---2-------1---1-------2----I--2------I--2------4----------I-
D-----4-----------2-----------4------I--2---2--I--0------2----------I-
A---4-----------2-----------4--------I--0---2--I--------------------I-
E------------------------------------I------0--I--------------------I-
1(Repeat 4 times) (The last chords)
2(Repeat twice!)
E-------------------------------------------------------------------I-
B------3-------5-------3-------5-------3-------5---3--------5-------I-
G------2---2---4-------2---2---4-------2---2---4---2--------4-------I-
D--4---0---2---2---4---0---2---2---4---0---2---2---0--------2-------I-
A--4-------0-------4-------0-------4-------0------------------------I-
E--2---------------2---------------2--------------------------------I-
Repeat twice!
They come from behind...
E--------------------------I----------------------------------------I-
B--------------------------I----------------------------------------I-
G---5----4----2-----9---7--I---5----4----2----9---7---5-------------I-
D---7----5----3----10---9--I---7----5----3---10---9---7---2---------I-
A--------------------------I------------------------------2---------I-
E--------------------------I------------------------------0---------I-
Repeat once!
Chorus:
Oh ho ho ho Oh ho ho ho Oh ho ho ho pay the price for love...
E-------------------------------------------------------------------I-
B------3-------5-------3-------5-------3-------5---3--------5-------I-
G------2---2---4-------2---2---4-------2---2---4---2--------4-------I-
D--4---0---2---2---4---0---2---2---4---0---2---2---0--------2-------I-
A--4-------0-------4-------0-------4-------0------------------------I-
E--2---------------2---------------2--------------------------------I-
Repeat 4 times!
E-------------------------------------------------------------------I-
B-------------------------------------------------------------------I-
G----------2-------2-------2------2---4---2---4---2---1-------------I-
D--2---4---2---4---2---4---2---4--2---4---2---4---2---2-------------I-
A--2---4-------4-------4-------4------------------------------------I-
E-------------------------------------------------------------------I-
Pay the price!!!
E-------------------------------------------------------------------I-
B-------------------------------------------------------------------I-
G----------2-------2-------2-------2--------------------------------I-
D--2---4---2---4---2---4---2---4---2---2---4------------------------I-
A--2---4-------4-------4-------4-------2---4------------------------I-
E------------------------------------------2------------------------I-
Repeat once!
THE END!!!
You probably ask yourself why I havenґt tab the solo:
1: If you want to be a good guitar player you must improvise!
2: It would take too much time to tab!
3: Donґt copy anyone else, just feel the inspiration!
Well: SHUT UP AND PLAY!!!
Have a nice time! / Christian Johansson




Ваше мнение



Капча