Artist: Axel Rudi Pell
Song: Earls Of Black
Album: The Masquerade Ball

Tabbed by: Christian Johansson
E-mail: [email protected]

Tune down 1/2 step!

Intro:
Guitar 1:
E--------------------I-
B--2----3------------I-
G--2----2---------6--I- (x4)
D--4----0----2----6--I-
A--4---------2----4--I-
E------------0-------I-

Guitar 2:
E---------------------------------------------------------I-
B---------------------------------------------------------I-
G-----11-13-14----11-13-14----11-13-13-13-14-18-16-14-13--I- (x4)
D--11----------11----------11-----------------------------I-
A---------------------------------------------------------I-
E---------------------------------------------------------I-

E---------------------------------------------------------I-
B---------------------------------------------------------I-
G--19-18-16-14-18-16-14-13-16-14-13-11-14-13-11----11-----I-
D-----------------------------------------------14--------I-
A---------------------------------------------------------I-
E---------------------------------------------------------I-
(1)A long time ago there was...
(2)Castles and kings...
E---------------------------------------------------------I-
B------3---3-------3--------------------------------------I-
G------4---2-------2--------------------------------------I- (x2)
D--4---4---0---2---0---4----------------------------------I-
A--4-----------2-------4----------------------------------I-
E--2-----------0-------2-2-2-2-2-2-2-2-2-2-2-2-2-2-2-2-2--I-
(But) the blind leading the blind...
E-------------------------------------------------------------I-
B-------------------------------------------------------------I-
G--7--4--6--------7--4--6-----------------------------------6-I- (x2)
D--7--4--6--4--2--7--4--6-----------------------------------6-I-
A--5--2--4--4--2--5--2--4-4-4-4-4-4-4-4-4-4-4-4-4-4-4-4-4-4-4-I-
E-----------2--0----------------------------------------------I-
Chorus: Earls of black, flying high...
E--------------------I-
B--2----3------------I-
G--2----2---------6--I- (x4)
D--4----0----2----6--I-
A--4---------2----4--I-
E------------0-------I-
(repeat intro)
Rhythm guitar during solo:
E----------------------------------------------I-
B----------------------------------------------I-
G----------------------------------------------I- (x6)
D-------------7-7--7-7-7------------6-6--6-6-6-I-
A--4-4--4-4-4-5-5--5-5-5-2-2--2-2-2-4-4--4-4-4-I-
E--2-2--2-2-2------------0-0--0-0-0------------I-
Guitar 1:
E-------------------------------------------------------------I-
B-------------------------------------------------------------I-
G--7--4--6--------7--4--6-----------------------------------6-I- (x2)
D--7--4--6--4--2--7--4--6-----------------------------------6-I-
A--5--2--4--4--2--5--2--4-4-4-4-4-4-4-4-4-4-4-4-4-4-4-4-4-4-4-I-
E-----------2--0----------------------------------------------I-
Guitar 2:
E-----------------------------------------------I-
B-----------------------------------------------I-
G-7-9-14-13-11-13-11-6-7-7-14-13-11-11-13-11-10-I- (x2)
D-----------------------------------------------I-
A-5-7-12-11-9--11-9--4-5-5-12-11-9--9--11-9--8--I-
E-----------------------------------------------I-

Repeat Chorus




Ваше мнение



Капча

Комментарии

Андрей
уллёёт!! КТО НЕ СЛУШАЛ-ТОТ МНОГОЕ ПОТЕРЯЛ!!