Axel Rudi Pell
Carousel
From: Oceans Of Time
--------------------
Tabbed by: Christian Johansson
E- mail: [email protected]
Tune down 1/2 step!
Intro:
Guitar 1
E-----------------------------I----------------------------3---I-
B-----------------------------I----------------------------3---I-
G--7---5---7---2---3---5---7--I--7---5---7---2---3---5---------I-
D--7---5---7---2---3---5---7--I--7---5---7---2---3---5---5-----I-
A--5---3---5---0---1---3---5--I--5---3---5---0---1---3---5-----I-
E-----------------------------I--------------------------3-----I-
Repeat once!
Guitar 2
E-----------------------------I-------------------------------I-
B-----------------------------I-------------------------------I-
G-----------------------------I--7*---------------------------I-
D-----------------------------I-------------------------------I-
A-----------------------------I-------------------------------I-
E-----------------------------I-------------------------------I-
Repeat once!
Guitar 1
E----------------------------------------------I-
B----------------------------------------------I-
G--7---5---7---2---3---5---7-------------------I-
D--7---5---7---2---3---5---7--7-7-7-7-7-7-7-7--I-
A--5---3---5---0---1---3---5--5-5-5-5-5-5-5-5--I-
E----------------------------------------------I-
E----------------------------3-----------------I-
B----------------------------3-----------------I-
G--7---5---7---2---3---5-----------------------I-
D--7---5---7---2---3---5---5-------------------I- Repeat
A--5---3---5---0---1---3---5-------------------I- twice!
E--------------------------3-------------------I-
Guitar 2
E---------------------------------------------------------------I-
B------------10--8----------------------------------------------I-
G--7--9--10---------10--9--10--9--7------7--9--10--9--7------7--I-
D------------------------------------10------------------10-----I-
A---------------------------------------------------------------I-
E---------------------------------------------------------------I-
Repeat twice!
We saw the wonderworld...
E-----------------I------------------------I-
B------6----------I------6-----------6--5--I-
G--7---5---5---3--I--7---5---5---3---5--5--I-
D--7---3---5---3--I--7---3---5---3---------I-
A--5-------3---1--I--5-------3---1---------I-
E-----------------I------------------------I-
E-----------------I------------------------I-
B------6----------I------6-----------------I-
G--7---5---5---3--I--7---5---5---3---------I-
D--7---3---5---3--I--7---3---5---3--#------I-
A--5-------3---1--I--5-------3---1--#------I-
E-----------------I------------------------I-
Donґt touch the flame...
E-------------------------I-----------------------------3-----I-
B-------------------------I-----------------------------3-----I-
G-----10---9---7----------I-----10---9---7--------------------I-
D--7---------------7---3--I--7---------------7---3----5-------I-
A--7---8---7---5---7---3--I--7---8---7---5---7---3-#--5-------I-
E--5---------------5---1--I--5---------------5---1-#--3----#--I-

Chorus:
Carousel of broken dreams...
E----------------------------------------------I-
B----------------------------------------------I-
G--7---5---7---2---3---5---7-------------------I-
D--7---5---7---2---3---5---7--7-7-7-7-7-7-7-7--I-
A--5---3---5---0---1---3---5--5-5-5-5-5-5-5-5--I-
E----------------------------------------------I-
E----------------------------3-----------------I-
B----------------------------3-----------------I-
G--7---5---7---2---3---5-----------------------I-
D--7---5---7---2---3---5---5-------------------I- Repeat
A--5---3---5---0---1---3---5-------------------I- twice!
E--------------------------3-------------------I-
Guitar 1
E----------------------------------------------I-
B----------------------------------------------I-
G--7---5---7---2---3---5---7-------------------I-
D--7---5---7---2---3---5---7--7-7-7-7-7-7-7-7--I-
A--5---3---5---0---1---3---5--5-5-5-5-5-5-5-5--I-
E----------------------------------------------I-
E----------------------------3-----------------I-
B----------------------------3-----------------I-
G--7---5---7---2---3---5-----------------------I-
D--7---5---7---2---3---5---5-------------------I- Repeat
A--5---3---5---0---1---3---5-------------------I- twice!
E--------------------------3-------------------I-

Guitar 2
E---------------------------------------------------------------I-
B------------10--8----------------------------------------------I-
G--7--9--10---------10--9--10--9--7------7--9--10--9--7------7--I-
D------------------------------------10------------------10-----I-
A---------------------------------------------------------------I-
E---------------------------------------------------------------I-
Repeat twice!
Far out in the distance...
E-----------------I------------------------I-
B------6----------I------6-----------6--5--I-
G--7---5---5---3--I--7---5---5---3---5--5--I-
D--7---3---5---3--I--7---3---5---3---------I-
A--5-------3---1--I--5-------3---1---------I-
E-----------------I------------------------I-
E-----------------I------------------------I-
B------6----------I------6-----------------I-
G--7---5---5---3--I--7---5---5---3---------I-
D--7---3---5---3--I--7---3---5---3--#------I-
A--5-------3---1--I--5-------3---1--#------I-
E-----------------I------------------------I-
Donґt touch the flame...
E-------------------------I-----------------------------3-----I-
B-------------------------I-----------------------------3-----I-
G-----10---9---7----------I-----10---9---7--------------------I-
D--7---------------7---3--I--7---------------7---3----5-------I-
A--7---8---7---5---7---3--I--7---8---7---5---7---3-#--5-------I-
E--5---------------5---1--I--5---------------5---1-#--3----#--I-
Chorus:
Carousel of broken dreams...
E----------------------------------------------I-
B----------------------------------------------I-
G--7---5---7---2---3---5---7-------------------I-
D--7---5---7---2---3---5---7--7-7-7-7-7-7-7-7--I-
A--5---3---5---0---1---3---5--5-5-5-5-5-5-5-5--I-
E----------------------------------------------I-
E----------------------------3-----------------I-
B----------------------------3-----------------I-
G--7---5---7---2---3---5-----------------------I-
D--7---5---7---2---3---5---5-------------------I-
A--5---3---5---0---1---3---5-------------------I- Repeat twice!
E--------------------------3-------------------I-
E----3-----------------------------------------I-
B----3-----------------------------------------I-
G-------------7--------------------------------I-
D--5----------7--------------------------------I-
A--5----------5--------------------------------I-
E--3-------------------------------------------I-
(The last chords before the bridge)
E------------------------------------I------------------------------I-
B------------------------------------I------------------------------I-
G------------------------------------I------------------------------I-
D----------5-------------------------I----------5-------------------I-
A-5--7--8-----8--7--8--7--5--7--5----I-5--7--8-----8--7--8--7--5--7-I-
E----------------------------------8-I------------------------------I-
Repeat once!
Guitar 1
E-------------------------------------------------------------------I-
B-------------------------------------------------------------------I-
G-------------------------------------------------------------------I-
D-7-7-7-7-7-7-7-7-7-7-7-7-7-7-7-7-7-7-7-7-7-7-7-7-7-7-7-7--9--9-----I-
A-5-5-5-5-5-5-5-5-5-5-5-5-5-5-5-5-5-5-5-5-5-5-5-5-5-5-5-5--7--7-----I-
E-------------------------------------------------------------------I-
Guitar 2
E------------------------------------I------------------------------I-
B------------------------------------I------------------------------I-
G------------------------------------I------------------------------I-
D----------5-------------------------I----------5-------------------I-
A-5--7--8-----8--7--8--7--5--7--5----I-5--7--8-----8--7--8--7--5--7-I-
E----------------------------------8-I------------------------------I-
Repeat 4 times!
E-------------------------------------I-
B-------------------------------------I-
G-------------------------------------I-
D--2------------------5---4---2---3---I- Repeat 4 times!
A--0----3-2-3-2-0-----3---2---0---3---I-
E-----------------3---------------1---I-
Rhythm guitar during solo:
E----------------------------------------------I-
B----------------------------------------------I-
G--7---5---7---2---3---5---7-------------------I-
D--7---5---7---2---3---5---7--7-7-7-7-7-7-7-7--I-
A--5---3---5---0---1---3---5--5-5-5-5-5-5-5-5--I-
E----------------------------------------------I-
E----------------------------3-----------------I-
B----------------------------3-----------------I-
G--7---5---7---2---3---5-----------------------I-
D--7---5---7---2---3---5---5-------------------I- Repeat twice!
A--5---3---5---0---1---3---5-------------------I-
E--------------------------3-------------------I-
E-----------------------------I----------------------------3---I-
B-----------------------------I----------------------------3---I-
G--7---5---7---2---3---5---7--I--7---5---7---2---3---5---------I-
D--7---5---7---2---3---5---7--I--7---5---7---2---3---5---5-----I-
A--5---3---5---0---1---3---5--I--5---3---5---0---1---3---5-----I-
E-----------------------------I--------------------------3-----I-
Repeat twice!
Break after solo:
E-----------------------------I----------------------------3---I-
B-----------------------------I----------------------------3---I-
G--7---5---7---2---3---5---7--I--7---5---7---2---3---5---------I-
D--7---5---7---2---3---5---7--I--7---5---7---2---3---5---5-----I-
A--5---3---5---0---1---3---5--I--5---3---5---0---1---3---5-----I-
E-----------------------------I--------------------------3-----I-
Repeat once!
Chorus:
Carousel of broken dreams...
E----------------------------------------------I-
B----------------------------------------------I-
G--7---5---7---2---3---5---7-------------------I-
D--7---5---7---2---3---5---7--7-7-7-7-7-7-7-7--I-
A--5---3---5---0---1---3---5--5-5-5-5-5-5-5-5--I-
E----------------------------------------------I-
E----------------------------3-----------------I-
B----------------------------3-----------------I-
G--7---5---7---2---3---5-----------------------I-
D--7---5---7---2---3---5---5-------------------I-
A--5---3---5---0---1---3---5-------------------I-
E--------------------------3-------------------I-
Repeat 3 times!
Carousel...
Guitar 1
E----------------------------------------------I-
B----------------------------------------------I-
G--7---5---7---2---3---5---7-------------------I-
D--7---5---7---2---3---5---7--7-7-7-7-7-7-7-7--I-
A--5---3---5---0---1---3---5--5-5-5-5-5-5-5-5--I-
E----------------------------------------------I-
E----------------------------3-----------------I-
B----------------------------3-----------------I-
G--7---5---7---2---3---5-----------------------I-
D--7---5---7---2---3---5---5-------------------I-
A--5---3---5---0---1---3---5-------------------I-
E--------------------------3-------------------I-
Guitar 2
E---------------------------------------------------------------I-
B------------10--8----------------------------------------------I-
G--7--9--10---------10--9--10--9--7------7--9--10--9--7------7--I-
D------------------------------------10------------------10-----I-
A---------------------------------------------------------------I-
E---------------------------------------------------------------I-
Repeat twice!
Fade out!
Tabulature explanation:
#: Pick slide: The edge of the pick is rubbed down the length of
the string producing a scratchy sound.
*: Natural Harmonic: Strike the note while the left hand lightly
touches the string over the fret indicated.
You probably ask yourself why I havenґt tab the solo:
1: If you want to be a good guitar player you must improvise!
2: It would take too much time to tab!
3: Donґt copy anyone else, just feel the inspiration!
Well: SHUT UP AND PLAY!!!
Have a nice time! / Christian Johansson




Ваше мнение



Капча