From: lorenk и Co [email protected]

Подъезд
Играется перебором

SOLO:
С
E----------------------0-----------------------------0----
H----0-----0-------0-------0-------0-----0-------1-------1-
G--0-----0-------0---0---0---0---0-----0-------0---0---0---0
D5-----4-----0-2---------------5-----4-----0----------------
A---------------------------------------------3-------------
E-----------------------------------------------------------
(повторить 2 раза)

Am H7
E----------------------0---------------0---------
H------1-----------1-------1-------0-------0-----
G----0---0-------2---2---2---2---2---2---2---2---
D------------------------------------------------
A--3-------3-2-0---------------2-----------------




Ваше мнение



Капча