From: Keeper [email protected]
Intro: Am | C | Dm | G | - 2 раза (только Гитара 2)
I
Am C
Снова Солнце встаёт, как всегда
Dm G
И идут люди кто куда
Am C
Кто гуляет, а у кого дела
G
В общем всё...
Припев:
Am C Dm G
Как всегда течёт река, и беда - ерунда.
С G Em Fmaj7
Как всегда идём туда, где зовут, но не ждут.
Am G E Am
Никогда не скажут "да", и, конечно, не поймут
C E E7 Am | C Em E
Как всегда...
Am . 4 раза (только Гитара 1)
II
Am C
Солнце сядет, и город замрет
Dm G
Только птицы одинокой полёт
Am C
Будет виден при полной луне
Dm G
Среди звёзд. в тишине
Am C
Ночь растает и настанет рассвет
G
В этом городе...
Припев:
Am C Dm G
Как всегда течёт река, и беда - ерунда.
С G Em Fmaj7
Как всегда идём туда, где зовут, но не ждут.
Am G E Am
Никогда не скажут "да", и, конечно, не поймут
Am C Dm G
Как всегда течёт река, и беда - ерунда.
С G Em Fmaj7
Как всегда идём туда, где зовут, но не ждут.
Am G E Am
Никогда не скажут "да", и, конечно, не поймут
C E E7 Am | C Em E(1 такт) Am
Как всегда...
Как играть:
Куплет: 4/4
Гитара №1
Am C Dm G
6|-0-----------0------------0---------------3---------|
5|---0-----------3------------0---------------2-------|
4|-----2-----------2------------0---------------0-----|
3|-------2-----------0------------2---------------0---|
2|---------1-----------1------------3---------------0-|
1|---------0-----------0------------1---------------3-|
Гитара №2
Am C
6|------------------------------------------
5|-0-------------------3--------------------
4|---2---2---2----2-----2---2---2----2------
3|-----2--------2----------0--------0-------
2|---------1-------------------1------------
1|------------------------------------------
Dm G
6|------------------------------------------|
5|-0-------------------2--------------------|
4|---0---0---0----0-----0---0---0----0------|
3|-----2--------2----------0--------0-------|
2|----------3-------------------0-----------|
1|------------------------------------------|
Припев:
Гитара №1: 1-я и 2-я струны каждого аккорда
Гитара №2: Бой v--v-v^ (4/4 подушечкой пальца)
Проигрыш играют обе гитары
Последнее Am в песне играется нисходящим арпеджио




Ваше мнение



Капча