song title: Skater boi
Artist: Avril Lavigne
Type:tab
submitted by Jason
e|-------------------------------------------------------|
b|-------------------------------------------------------|
g|----7-7-7-7--------------------------------------------|
d|----7-7-7-7--7-7-7-7--999--88--777---------------------|
a|----5-5-5-5--7-7-7-7--999--88--777---------------------|
e|-------------5-5-5-5--777--66--555---------------------|
CHORUS
e|-------------------------------------------------------|
g|-------------------------------------------------------|
d|-------------------------------------------------------|
g|---3-3-3-3-3-3-3-3--5-5-5-5-5-5-5-5--8-8-8-8-8-8-8-8---|
a|---3-3-3-3-3-3-3-3--5-5-5-5-5-5-5-5--8-8-8-8-8-8-8-8---|
e|---1-1-1-1-1-1-1-1--3-3-3-3-3-3-3-3--6-6-6-6-6-6-6-6---|
its a easy song but if theres anything wrong with it email me at
[email protected]
Jason




Ваше мнение



Капча