This is the guitar solo in the bridge:

e--------------------------------------------------------------------
b------------10--------------------10--------------------8-----------
g--7-10-9-10----10-9-10----10-9-10----10-9-10----10-9-10---10-9-10---
d-----------------------10--------------------10---------------------
a--------------------------------------------------------------------
E--------------------------------------------------------------------

e-------------------------/
b-------------------------/ Repeat this twice while chords
g----10-9-10---10-9-10----/ are being played on another guitar.
b--8--------7-------------/
a-------------------------/
E-------------------------/

From Avril's sk8er boi Danny!!!!!!




Ваше мнение



Капча