From: Tora
Artist:Avril Lavigne
Song:Nobody's fool
Album:Let go

Ok this is the acoustic's version of this song...I tabbed it with the video
So I think I didn't make mistakes..but if there're something wrong about
This just e-mail me at:[email protected].
Enjoy!!
Intro
|-----------------------|----------------------|----------------------|
|-----------------------|----------------------|----------------------|
|-----9-------9---------|-----9-------9--------|-----9-------9--------|
|---9---9---9---9----9--|---9---9---9---9---9--|---9---9---9---9--9---|
|-7-------7--------7----|-6-------6-------6---9|--------------------0-|
|-----------------------|----------------------|-9-------9-------9----|
|----0-0--------|
|----7-7--------|
|----9-9--------| play this riff twice
|-9--9-9--------|
|----0-0--------|
|---------------|
Verse
|--------0--------0--|-------------------|------------------|
|--------0--------0--|-------------------|------------------|
|----x-x-x--x-x-x-x--|--x-x-x-x-x-x-x-x--|--6-6-6-6-6-6-6-6-|
|----9-9-9--9-9-9-9--|--9-9-9-9-9-9-9-9--|--6-6-6-6-6-6-6-6-|
|-6--7-7-7--7-7-7-7--|--6-6-6-6-6-6-6-6--|--4-4-4-4-4-4-4-4-|
|--------------------|--7-7-7-7-7-7-7-7--|------------------|
Fall back... ...apeal to you
|-------0-0-0---|
|-------0-0-0---|
|-6-6-6-6-6-6---| play all the riff twice
|-6-7-7-7-7-7---|
|-4-----0-0-0---|
|-5-------------|
...coz' I flow
Pre-chorus
|-0-0-0-0--|-0-0-0-0--|---0-0-0-0-0---|
|-0-0-0-0--|-0-0-0-0--|---0-0-0-0-0---|
|-9-9-9-9--|-9-9-9-9--|-9-9-9-9-9-9---|




Ваше мнение



Капча