Bonus Track - I Don't Give
~~~~~~~~~~~~~~~~~~~~~~~~~~
Tabbed by Charles de la Cruz (http://www.comeunglued.com/avril/)
Tuning - Standard Eb (Eb-Ab-Db-Gb-Bb-Eb)

Chords written according to fret position
A - x022xx E/B - x2245x
B - x2444x G5 - 355xxx
C#m - x4665x F#5 - 244xxx

Opening Riff (2 guitars)
A B C#m A B C#m
e/|--9/119-7-9~~~~~~~~~~-9/119-7-9~~~~~~~~~~-9/119-7-9~~~~~~-9-7-9~~~--|
B||-----------9~~~~~~~~-7-------------------------------9-----7-9-9-9~~~--||
G||--------------------------------9~~~~~~~~~~~~~~~-----------------9~~~--||
D||-----------------------------------------------------------------------||
A||-----------------------------------------------------------------------||
E|-----------------------------------------------------------------------|/

A B C#m
Everytime you go away, it actually kinda makes my day
A B C#m
Everytime you leave, you slam the door
A B C#m
You pick your words so carefully, you hate to think you're hurting me
A B
You leave me laughing on the floor

B E/B
Cause I don't give it up, I don't give a damn
A B
What you say about that
E/B
You know I don't give it up, I don't give a damn
A B
What you say about that
C#m
You know I'm not gonna cry, about some stupid guy
A B
A guy who thinks he's all that

(2 guitars, but can be played with an octave pedal)
A B C#m
e/|--------12-------------14/1614-12-12~~~-11~~~~--|
B||--7/97--5-14~~~~~~~~~~-7/-9-7--5--5~~~--4~~~~--||
G||------------6~~~~~~~~~~--------------------------||
D||-------------------------------------------------||
A||-------------------------------------------------||
E|-------------------------------------------------|/
A B C#m
I thought we were just hanging out, so why'd you kiss me on the mouth
A B C#m
You thought the way you taste would get me high
A B C#m
You went to all your friends to brag, guys are always such a drag
A B
Don't you know the reason that I kissed you was to say goodbye

B E/B
Cause I don't give it up, I don't give a damn
A B
What you say about that
E/B
You know I don't give it up, I don't give a damn
A B
What you say about that
C#m
You know I'm not gonna cry, about some stupid guy
A B
A guy who thinks he's all that

A B C#m
Hanging hanging out, I am simply
A B C#m
Hanging hanging out, I am simply
A B C#m
Hanging so why'd you kiss me on the mouth?

G5 F#5
Don't you know that I...

E/B
I don't give a damn about you
A B
I won't give it up not for you
E/B
I don't give a damn about you
A B
I won't give it up not for you
C#m
I'm not gonna cry about some stupid guy
A B
A guy who thinks he's all that

E/B
I don't give it up, I don't give a damn
A B
What you say about that
E/B B
You know I don't give it up, I don't give a damn
A B
What you say about that

E/B
I don't give it up, I don't give a damn
A B
What you say about that
E/B B
You know I don't give it up, I don't give a damn
A B
What you say about that




Ваше мнение



Капча