Intro:
Em G D
E------------3-3-3-3-3-2-2-2-2-2----
B------------3-3-3-3-3-3-3-3-3-3----
G----------------------2-2-2-2-2----
D--2-2-2-2-2------------------------ REPEAT 4x
A--2-2-2-2-2-2-2-2-2-2--------------
E------------3-3-3-3-3--------------
Verses 1,2,etc.
G Em C D
E--3-3-3-3-----------------2-2-2-2-
B--3-3-3-3---------1-1-1-1-3-3-3-3-
G--------------------------2-2-2-2- REPEAT 3x
D----------2-2-2-2-2-2-2-2---------
A--2-2-2-2-2-2-2-2-3-3-3-3---------
E--3-3-3-3-------------------------
Chorus:
Em C G D
E--------------3-3-3-2-2-2-
B--------1-1-1-3-3-3-3-3-3-
G--------------------2-2-2-
D--2-2-2-2-2-2------------- REPEAT 3x
A--2-2-2-3-3-3-2-2-2-------
E--------------3-3-3-------




Ваше мнение



Капча