Anything But Ordinary
~~~~~~~~~~~~~~~~~~~~~
Tabbed by Charles de la Cruz (http://members.rogers.com/avrillavigne/)
Tuning - Standard EADGBE

Gm - 355333 || G - 320003
F - 133211 || Am - x02210
C - x32013 || Dm - xx0231
C/B - x2x013 || D - xx0232
Am7 - x02013 ||

Gm F C
Gm F C

C C/B Am7
Sometimes I get so weird, I even freak myself out
F G
I laugh myself to sleep, it's my lullabye
C C/B Am7
Sometimes I drive so fast, just to feel the danger
F G
I wanna scream, it makes me feel alive

F G C C/B Am
Is it enough to love, is it enough to breathe
F G Am
Somebody rip my heart out and leave me here to bleed
Dm F C C/B Am
Is it enough to die somebody save my life
Gm F Am
I'd rather be anything but ordinary please

C C/B Am7
To walk within the lines would make my life so boring
F G
I want to know that I have been to the extreme
C C/B Am7
So knock me off my feet com'on now give it to me
F G
Anything to make me feel alive

F G C C/B Am
Is it enough to love, is it enough to breathe
F G Am
Somebody rip my heart out and leave me here to bleed
Dm F C C/B Am
Is it enough to die somebody save my life
Gm F Am
I'd rather be anything but ordinary please
Gm F C
I'd rather be anything but ordinary please

Am Em D
Let down your defenses, use no common sense
G
If you look you will see that this world is
Am Em D
Beautiful accident, turbulent, succulent, opulent permanent
G Am C D
No way I wanna taste it, don't wanna waste it away

(no chords)
Sometimes I get so weird I even freak myself out
(no chords) F G
I laugh myself to sleep it's my lullabye

F G C C/B Am
Is it enough, is it enough, is it enough to breathe
F G Am
Somebody rip my heart out and leave me here to bleed
Dm F C C/B Am
Is it enough to die somebody save my life
Gm F Am
I'd rather be anything but ordinary please, is it enough

Dm F C C/B Am
Is it enough to die somebody save my life
Gm F Am
I'd rather be anything but ordinary please
Gm F (outro riff)
I'd rather be anything but ordinary please

Outro riff
Guitar 1
e||------------------------------------------3--
B||-------3----3------1---1------1---1----------
G||---------3----3------2---2------2---2-----0--
D||---------------------------------------------
A||---------------------------------------------
E||---------------------------------------------
||
|| Guitar 2
e||---------------------------------------------
B||-------3----3----3----1----1----1----1----1--
G||--2-3----3----3----2----2----2----2----2--0--
D||---------------------------------------------
A||---------------------------------------------
E||---------------------------------------------




Ваше мнение



Капча