+--------KEY----------+
| -Slide Down |
| h -Hammer On |
| / -Slide Up |
| P -Pull Off |
| ~ -Let Ring/Vibrato |
+---------------------+
Solo:
e-|----------------------------------------------------------------------------
B-|----------------------------------------------------------------------------
G-|--------------------------------------9-7-445~79-9/7-4-4h5p4-2~~912-7-14
D-|-----5-7-5~~7-5-34----------------7h9--------------------------------------
A-|-5-7---------------7-55~2-2/7~~7h9-----------------------------------------
E-|----------------------------------------------------------------------------
e-|---------------------------------------------------------------------------
B-|---------------------------------------------------------------------------
G-|9-557-5~799/7-7--12-11---12-11---1214-12-11-12-11----------11-12-11~~~~~
D-|------------------------12------12-------------------1214~~14-------------
A-|---------------------------------------------------------------------------
E-|---------------------------------------------------------------------------




Ваше мнение



Капча