e|-Intro---------------------Bridge------------------------------------------|
B|-----------------------------1x--------------------------------------------|
G|-2x------------------------------------------------------------------------|
D|---------------------------------------------------------------------------|
A|----------0------0-0---------------1-0--3-5--------------------------------|
E|----------0------0-0---------------1-0--3-5--------------------------------|
.
e|-Riff A--------------------------------------------------------------------|
B|-1x---------------555------------------------------------------------------|
G|------------------555-------------------555--------------------------------|
D|----------000-333-333-8-7-3-2---000-333-555-8-7-5-3-5-3-2-0----------------|
A|----------000-333-----8-7-3-2---000-333-333-8-7-5-3-5-3-2-0----------------|
E|----------000-333-----8-7-3-2---000-333-----8-7-5-3-5-3-2-0----------------|
. . . . . . .
e|-Riff B--------------------------------------------------------------------|
B|-6x------------------------------------------------------------------------|
G|---------------------------------------------------------------------------|
D|--------------------------------- -----------------------------10-8-7-8-7--|
A|-------1-0--1-0-------1-0--1-0-------1-0--1-0------1-0--1-0--------------8-|
D|-------1-0--1-0--000--1-0--1-0--000--1-0--1-0-000--1-0--1-0-00-------------|
... ... ... ..
e|-Riff C--------------------------------------------------------------------|
B|-4x------------------------------------------------------------------------|
G|---------------5---7---5---------------------------------------------------|
D|--------00-----5-x-7-x-5-33-----3---5---3---2------------------------------|
A|--------00---0 3-x-5-x-3-33-----3-x-5-x-3-x-2------------------------------|
E|--------00-000-----------33-333-3-x-5-x-3-x-2------------------------------|
... ...
e|---------------------------------------------------------------------------|
B|-Riff D--------------------------------------------------------------------|
G|--2x-----------------------------------------------------------------------|
D|---------0-3-2-0-3-0-6-7---5-8-7-5-3-2-3-0---------------------------------|
A|---------0-3-2-0-3-0-6-7---5-8-7-5-3-2-3-0---------------------------------|
E|---------0-3-2-0-3-0-6-7---5-8-7-5-3-2-3-0---------------------------------|
e|---------------------------------------------------------------------------|
B|-Riff C 4x---Riff D 2x-----------------------------------------------------|
G|---------------------------------------------------------------------------|
D|---------------------------------------------------------------------------|
A|---------------------------------------------------------------------------|
E|---------------------------------------------------------------------------|
e|-Riff E--------------------------------------------------------------------|
B|-2x------------------------------------------------------------------------|
G|---------------------------------------------------------------------------|
D|---------------------------------------------------------------------------|
A|----------8p7-8p7-8p7-8p7---1p0-3-5—-1p0-3-5-------------------------------|
E|----------8p7-8p7-8p7-8p7---1p0-3-5--1p0-3-5-------------------------------|
e|-bridge-1------------Riff F------------------------------------------------|
B|------------------------4x-------------------------------------------------|
G|---------------------------------------------------------------------------|
D|--------3-023-5-6------------0-0--------------0-0--------------------------|
A|--------3-023-5-6------------000-x-0-0-0-3-5--000-x-0-0-0-6-5-3------------|
E|--------3-023-5-6------------000-x-0-0-0-3-5--000-x-0-0-0-6-5-3------------|
...
e|---------------------------------------------------------------------------|
B|--bridge1-1x-->--Riff-F-4x-->-Bridge1-1x-----------------------------------|
G|---------------------------------------------------------------------------|
D|---------------------------------------------------------------------------|
A|---------------------------------------------------------------------------|
E|---------------------------------------------------------------------------|
e|--Bridge2------------------------------------------------------------------|
B|---------------------------------------------------------------------------|
G|-----------7------7------7~----------7------7------7-----------------------|
D|-----------7-0000-7-0000-7~-1-0-3-5--7-0000-7-0000-7-----------------------|
A|----------------------------1-0-3-5------------------7-5-3-5-3-2-0---------|
E|----------------------------1-0-3-5------------------7-5-3-5-3-2-0---------|
. . . . . . .
e|---------------------------------------------------------------------------|
B|---Riff-A-2x-->--Riff-B-4x-------------------------------------------------|
G|---------------------------------------------------------------------------|
D|---------------------------------------------------------------------------|
A|---------------------------------------------------------------------------|
E|---------------------------------------------------------------------------|




Ваше мнение



Капча