|-------------------------------------------------------------|
|-------------------------------------------------------------|
|-5-5-5-5-5-5-5-6-6-6-6-6-6-6---------------------------------|
|-5-3-3-5-5-5-5-6-6-6-6-6-6-6---------------------------------|
|-3-3-3-3-3-3-3-4-4-4-4-4-4-4---------------------------------|
|-------------------------------------------------------------|
* * * * * * * *
|--------------------------------------------------------------------|
|--------------------------------------------------------------------|
|-5---8--------------------------------------------------------------|
|-5-6-8-8--2-2-2-----------------------------------------------------|
|-3-6-6-8--2-2-2-----------------------------------------------------|
|---6---8--2-2-2-----------------------------------------------------|
* * *
|--------------------------------|----------------------------------|
|-faster-muted-part---------repeat a few----------------------------|
|--------------------------------|----------------------------------|
|---------------------------3-2--|----------------------------------|
|-5-4-5-7-5-4-2-4-5-4-5-7-5------|---5-4-5-7-5-4-2-4-5-4-5-7-5--1-3-|
|-5-4-5-7-5-4-2-4-5-4-5-7-5------|---5-4-5-7-5-4-2-4-5-4-5-7-5--1-3-|
* * * * * * * * * * * * * * * * * * * * * * * * * *

|-------------------------------------------------------------|
|-------------------------------------------------------------|
|----------5%-harmonic----------------------------------------|
|-0-1-3-0-----------------------------------------------------|
|-0-1-3-0-----------------------------------------------------|
|-0-1-3-0-----------------------------------------------------|
after the above do it a few times palm muted
|----------------5--------------------------------------------|
|--5-5-6-5-5h6h8---5-5-6--------------------------------------|
|--5-5---5---------5-5----0-3-2-0---0-------------------------|
|---------------------------------4---2p0---------------------|
|-------------------------------------------------------------|
|-------------------------------------------------------------|
* * * * * * ^fast scale part
after this there's just one guitar doing some opens on the top three strings and
the other guy doing the scale over and over then:

|-------------------------------------------------------------|
|-------------------------------------------------------------|
|-------------------------------------------------------------|
|--0-3-5-7----------------------------------------------------|
|--0-3-5-7--a bunch of times----------------------------------|
|--0-3-5-7----------------------------------------------------|
back to
|-------------------------------------------------------------|
|-------------------------------------------------------------|
|----------5%-harmonic----------------------------------------|
|-0-1-3-0-----------------------------------------------------|
|-0-1-3-0-----------------------------------------------------|
|-0-1-3-0-----------------------------------------------------|
then during the high screamy part
|--------------------------------------------------|
|--------------------------------------------------|
|--------------------------------------------------|
|-0--------0-----5-0-------1-3---------------------|
|-0--5h7-0-0-5h7---0-5h7-0-1-3---------------------|
|-0--------0-------0-------1-3---------------------|
then do the fast palm muted thing again without the 3 2 on the 3rd string and slide to
|---------------------------------------------------|
|---------------------------------------------------|
|---------------------------------------------------|
|-12----------6----------5-5------------------------|
|-12-let-ring-6-let-ring-5-5------------------------|
|-12----------6----------5-5------------------------|




Ваше мнение



Капча