Eternal Rest Solo
b b
|15-13-----------------------------13-11-------------------|
|---------------------------b1/2----------13-11-13-11------|
|-----------------h--h--8--10*-10*-------------------------|
|--------h-h-----5-7-8-------------------------------------|
|-------5-6-8----------------------------------------------|
|----------------------------------------------------------|
|------------------------------------------------------------|
|------------------------------------------------------------|
|-14-12-14-----12-----12-----12-----12-----12--------12------|
|-----------15-----15-----15-----15-----15-----13-15---------|
|------------------------------------------------------------|
|------------------------------------------------------------|

|------------------------------------------------------------|
|--------------h--h---------p--p-----------------------------|
|----12-14*--8-10-111211-10-8----8----p--------------------|
|-15------------------------------10---10-8----8----p--------|
|--------------------------------------------10---10-8--8----|
|------------------------------------------------------------|
|------------------------------------------------------------|
|---h---h--------p--p-------h--h--------p--p-----------------|
|-12-14-1517/15-14-12--12-14-1517/15-14-12-----------------|
|------------------------------------------------------------|
|------------------------------------------------------------|
|------------------------------------------------------------|

|-----------------------h-h--p-----------h---9-10-12-10------|
|---h---h---13*---h---8-9-10-9---h---10-11-------------------|
|-12-14-15-------9-10-----------9-10-------------------------|
|------------------------------------------------------------|
|------------------------------------------------------------|
|------------------------------------------------------------|
~
|13--17-13-17-13-----------------13-15-13-------------------|
|------------------15-13-15-13-15-----------15-13------------|
|---------------------------------------------------14*------|
|------------------------------------------------------------|
|------------------------------------------------------------|
|------------------------------------------------------------|
|--------10--------13-15-13--------10--------13-15-13--------|
|-10-13-----13/15-----------10-13-----13/15------------------|
|------------------------------------------------------------|
|------------------------------------------------------------|
|------------------------------------------------------------|
|------------------------------------------------------------|

|-------15-17-15-----15-17-15----13-15-13-----15-17-15-------|
|15/17------------17-----------15-----------17---------------|
|------------------------------------------------------------|
|------------------------------------------------------------|
|------------------------------------------------------------|
|------------------------------------------------------------|

|----13-15-13-----15-17-15-15-17-18-17-15--------------------|
|-15-----------17--------------------------------------------|
|------------------------------------------------------------|
|------------------------------------------------------------|
|------------------------------------------------------------|
|------------------------------------------------------------|

|-17-18-20-18-17----p--p---20-18--20-15--------22------------|
|------------------18-17-15---------------18-----------------|
|---------------------------------------------15-------------|
|------------------------------------------------------------|
|------------------------------------------------------------|
|------------------------------------------------------------|




Ваше мнение



Капча