AVENGED SEVENFOLD-CLAIRVOYANT DISEASE
Tabbed by Ben H (PunkAsPhuck)

intro
guitar 1
e:--------------------------------------------:
b:--------------------------------------------:
g:--------------------------------------------:
D:-7--5-7-8-7-5-7---------7--5-7-8-7-5-7----5-:
A:----------------8--7-8-----------------8----:
E:--------------------------------------------:

guitar 2
e:----------------------------------------------:
b:----------------------------------------------:
g:----------------------------------------------:
D:----------------------------------------------:
A:-8--7-8-10-8-7-8-5--4-5--8--7-8-10-8-7-8-5--7-:
E:----------------------------------------------:

verse
guitar 1 (clean)
e:----------5-------------1-0-5-1-0---:
b:----5-6-5---6-5-------3-----------3-:
g:----------------7-------------------:
D:--7-----------------3---------------:
A:-5-------5-5-------1-------1-1------: x4
E:------------------------------------:

guitar 2 (with slight reverb)
e:-------------10----10-:
b:---6---6---10----10---:
g:--7---7---------------:
D:-7---7----8-----8-----:
A:----------------------: x4
E:----------------------:

chorus
guitar 1
e:-----------------------------------:
b:-----------------------------------:
g:-----------------------------------:
D:-000-006-000-008-xx8-xx8-xx6-xx7-:
A:-000-005-000-007-xx8-xx7-xx5-xx6-: x4
E:-000-006-000-008-xx8-xx8-xx6-xx7-:

guitar 2
e:-8b-
b:----
g:----
D:----
A:----
E:----

e:----------16b(1/2)-------16b(1/2)-----------------:
b:-14-15-14----------15-14----------15b-14b-13b-14b-:
g:--------------------------------------------------:
D:--------------------------------------------------:
A:--------------------------------------------------: x2
E:--------------------------------------------------:

verse2
guitar 3
e:---------------------------------:
b:-----------------------------1/3-:
g:---------------------------2-----:
D:-0-0-2-3--2-3-5-3-2-3--3-0-------:
A:---------------------------------: x4
E:---------------------------------:

chorus

bridge
guitar 1
e:--------------------------------------:
b:--------------------------------------:
g:----------------------------------6-9-:
D:-00-88888888-00-88888888-22-33-55-----:
A:-00-88888888-00-88888888-11-33-55-4-7-: x2
E:-00-88888888-00-88888888-22-33-55-----:

guitar 2
e:-----------------------------
b:-----5-6-5h6p5------/10-8----
g:-7-7-----------7----------10-
D:--7-------------7-8----------
A:----------------------------- x2
E:-----------------------------

e:----------------------------------------------------:
b:-11-10-8----------8-10-8----------------------------:
g:---------10-9--10--------10-9-7--9-10-12-10-9-7-6-9-:
D:----------------------------------------------------:
A:----------------------------------------------------: x2
E:----------------------------------------------------:

guitar 1
e:---------------------------------------------------
b:---------------------------------------------------
g:----------33333333-55555555-10101010-9999-77777777-
D:-00000000-33333333-55555555-10101010-9999-77777777-
A:-00000000-11111111-33333333-8-8-8-8--7777-55555555- x3
E:-00000000------------------------------------------

e:-------------------------------------------------------:
b:-------------------------------------------------------:
g:----------33333333-55555555-7777-9999-1010101010101010-:
D:-00000000-33333333-55555555-7777-9999-1010101010101010-:
A:-00000000-11111111-33333333-5555-7777-8-8-8-8-8-8-8-8--: x2
E:-00000000----------------------------------------------:

guitar 2
e:------------------------------------------------------
b:------------------------------------------------------
g:----------33333333-55555555-10101010-99-55-5/77777777-
D:-00000000---------------------------------------------
A:-00000000-11111111-33333333-8-8-8-8--77-33-3/55555555-
E:-00000000---------------------------------------------

e:------------------------------------------
b:------------------------------------------
g:-77777777-99999999-10101010-9999-10101010-
D:------------------------------------------
A:-55555555-77777777-8-8-8-8--7777-8-8-8-8--
E:------------------------------------------

e:----------------------------------------------------
b:----------------------------------------------------
g:-3333-10109-97-755555555-10101010-99-55-77777777-
D:----------------------------------------------------
A:-1111-8-8-7-75-533333333-8-8-8-8--77-33-55555555-
E:----------------------------------------------------

e:--------------------------------------------------
b:--------------------------------------------------
g:-33333333-55555555-14141414-9999-1010101010101010-
D:--------------------------------------------------
A:-11111111-33333333-12121212-7777-8-8-8-8-8-8-8-8--
E:--------------------------------------------------

e:---------------------------------------------------------------------:
b:---------------------------------------------------------------------:
g:-151515151515-1414-121212121212-10-9-121212-10-9999-1010101010101010-:
D:---------------------------------------------------------------------:
A:-131313131313-1212-101010101010-8--7-101010-8--7777-8-8-8-8-8-8-8-8--:
E:---------------------------------------------------------------------:

guitar 3 (with Wah)
e:-----------------------------------------------------------------------
b:-10b(1/2)-10b-10-------------------------------------------------------
g:-----------------12-10-9-9h10p9--------9-12-12b(full)--9-10-9----------
D:--------------------------------10--10------------------------10-10/12-
A:-----------------------------------------------------------------------
E:-----------------------------------------------------------------------

e:-----------------------------------------------------------------13-12-10-
b:-------------------------------------------13-11-10----------10-----------
g:---------------------------------7-9-10-9-----------12-10-12--------------
D:-1210-108-8--8/10-10/12-10--10------------------------------------------
A:--------------------------------------------------------------------------
E:--------------------------------------------------------------------------

e:----------10--108-86-6-:
b:-13-11-10----------------:
g:-------------------------:
D:-------------------------:
A:-------------------------:
E:-------------------------:

chorus

guitar 1
e:-----------:
b:-----------:
g:-----------:
D:-0000-0000-:
A:-0000-0000-: x3
E:-0000-0000-:

guitar 2
e:----------------------:
b:----------------------:
g:-999999-1010-77777777-:
D:----------------------:
A:-777777-8-8--55555555-: x3
E:----------------------:

guitar1
e:---------------:
b:---------------:
g:---------------:
D:-0000-00-00000-:
A:-0000-00-00000-:
E:-0000-00-00000-:

guitar 2
e:-10(full)-10(1 1/2)-10-:
b:-----------------------:
g:-----------------------:
D:-----------------------:
A:-----------------------:
E:-----------------------:

verse




Ваше мнение



Капча