Avenged Sevenfold 'And All Things Will End'
From there 'Waking the Fallen' Cd
Drop D tuning
()=palm muting
s=slide
h=hammer on
2 parts

Intro part 1
e------------------------------------------------------0|
b------------------------------------------------------2|
g-------2-----2-----0 2 0------------0 2 3 0-------3---3|
d---2-3--5-3------2--------2---2---3---------3---2---2-2|X 1
a--5------------3------------3---1-------------0--------|
d-------------------------------------------------------|

Intro part 2
e-----------------------------------------------|
b----------6s5----------------------------------|
g----------7s6---------------------------6-7h-6-|
d-0-(0)--------X3-8-7----7-------------7--------| X 2
a 0 (0)X8--------------10---10-8-7-8-10---------|
d 0 (0)-----------------------------------------|

A7X ROCKS by guitarboy6teen




Ваше мнение



Капча