e|--intro--------------------------------------------------------------------|
B|---------------------------------------------------------------------------|
G|---------------------------------------------------------------------------|
D|---------------------------------------------------------------------------|
A|-----------0-xx-0----------------------------------------------------------|
D|-----------0-xx-0----------------------------------------------------------|

e|--Riff A-------------------------------------------------------------------|
B|---------------------------------------------------------------------------|
G|--------------->-7---------------------->-7--------------------------------|
D|--------------->-7---------------------->-7--------------------------------|
A|--------------->-5---------------------->-5--------------------------------|
D|----------0-00------0-23-023-5-1---0-00-----0-23-023-5-7-------------------|
.. ..
e|-Riff-A-again with slayerisch muted D string-------------------------------|
B|---------------------------------------------------------------------------|
G|---------------------------------------------------------------------------|
D|---------------------------------------------------------------------------|
A|---------------------------------------------------------------------------|
D|---------------------------------------------------------------------------|

e|--Bridge-1------------------------3p2p0------------------------------------|
B|---------------------------------------3p2p0-------------------------------|
G|--------------------------------------------3p2p0--------------------------|
D|-------------------------------------------------3p2p0---------------------|
A|---------0-0-------0--0------0---------------------------------------------|
D|---------0-0--1111-0--0-1111-0---------------------------------------------|
.... ....
e|--Bridge 2-----------------------------------------------------------------|
B|---------------------------------------------------------------------------|
G|---------------------------------------------------------------------------|
D|---------------------------------------------------------------------------|
A|-------------555-777-9-12-11-7-555-777-444---------------------------------|
D|-------------555-777-9-12-11-7-555-777-444---------------------------------|
. . .
e|-Riff-B------2p0-----------------------------------------------------------|
B|--Guitar 1------3-2h3p2----------------------------------------------------|
G|-----------------------2--444-6-5-666-797-676-464-2424-000-2---------------|
D|------------------------------------------------------------4--------------|
A|---------------------------------------------------------------------------|
D|---------------------------------------------------------------------------|

e|-Riff B--------------------------------------------------------------------|
B|--guitar 2-----------------------------------------------------------------|
G|---------------------------------------------------------------------------|
D|---------------------------------------------------------------------------|
A|------------5555-7777-12-12--11-11-99-77-555-7-4---------------------------|
D|------------5555-7777-12-12--11-11-99-77-555-7-4---------------------------|

e|-Riff C--------------------------------------------------------------------|
B|---------------------------------------------------------------------------|
G|---------------------------------------------------------------------------|
D|--------------------------------------------------------------------5----5-|
A|---------------9-----9-7------5-----5-4------2-----2-4-------7-7-3333-3333-|
D|-----------99999-99999-7--55555-55555-4--22222-22222-4-7777777-7-----------|
.... .... .... .... .... .... ...... ... ...

e|-Riff D--------------------------------------------------------------------
B|---------------------------------------------------------------------------
G|--------4------------------------------------------------------------------
D|--------4-444-111111-999-777-666-----111111-999-111111-14-14-14-----999-777
A|--------2-222—9-9-9—-777-555-444-555-9-9-9--777-9-9-9--12-12-12-000-777-555
D|---------------------------------555----------------------------000--------

-----------------------------------------------------------------------------|
-----------------------------------------------------------------------------|
-----------------------------------------------------------------------------|
666-777----------------------------------------------------------------------|
444-555-777777---------------------------------------------------------------|
--------777777---------------------------------------------------------------|

e|-Riff E--------------------------------------------------------------------|
B|---------------------------------------------------------------------------|
G|--------------->3>7-5~-----------------------------------------------------|
D|---------------------------------------------------------------------------|
A|--------0---1---8---3------------------------------------------------------|
D|--------0---1---8---3------------------------------------------------------|

e|-Riff-F--------------------------------------------------------------------|
B|---------------------------------------------------------------------------|
G|---------------------------------------------------------------------------|
D|---------------------------------------------------------------------------|
A|---------0-0----0-0---------0-0----0-0-------------------------------------|
D|---------0-0-00-0-0-0000----0-0-00-0-0-00000000----------------------------|
.. .... .. ........
e|--Bridge-3-------------------Bridge-3--------------------------------------|
B|----guitar-1---------------------guitar-2----4p3-4p3-----------------------|
G|---------------------------------------------------------------------------|
D|---------------------------------------------------------------------------|
A|---------------1p0-1p0-----------------------------------------------------|
D|---------------1p0—1p0-----------------------------------------------------|

e|-bridge-4------------------------------------------------------------------|
B|---------------------------------------------------------------------------|
G|-----------------------------------8---------------------------------------|
D|-----------------------------------x---------------------------------------|
A|--------------5875-587-1--5875-587-6---------------------------------------|
D|--------------5875-587-1--5875-587-----------------------------------------|

e|-Riff-G--------------------------------------------------------------------|
B|---------------------------------------------------------------------------|
G|---------------------------------------------------------------------------|
D|---------------------------------------------------------------------------|
A|-----------------------0---------------------------------------------------|
D|-----------00000-00000-0—111-0—111-0--111-0--111-0-------------------------|
..... ..... ... ... ... ...
e|-Bridge-5------------------------------------------------------------------|
B|-Clean---------------------------------------------------------------------|
G|----------------3--------2-------------------------------------------------|
D|------------0-3------0-3---------------------------------------------------|
A|---------------------------------------------------------------------------|
D|---------------------------------------------------------------------------|

e|-Riff-H--------------------------------------------------------------------|
B|-guitar-1------------------------------------------------------------------|
G|---------------------------------------------------------------------------|
D|---------------------------10-12-10--------------------------10-12-10------|
A|------888-3-00--12-10-12----------12-10-888-10-00-12-10-12----------12-10--|
D|------888-3-00--------------------------888-10-00--------------------------|

e|-Riff-H--------------------------------------------------------------------|
B|--guitar-2-----------------------------------------------------------------|
G|------------15-15-15--14-14-14--15-15-15-----------------------------------|
D|------------15-15-15--14-14-14--15-15-15-----------------------------------|
A|------------13-13-13--12-12-12--13-13-13--12-12-12-------------------------|
D|------------------------------------------12-12-12-------------------------|

e|-Riff-H--------------------------------------------------------------------|
B|---guitar-2-----------11-11-11-10-10-11-11---------------------------------|
G|--------------------------------------------10->-7-7-----------------------|
D|---------------------------------------------------------------------------|
A|---------------------------------------------------------------------------|
D|---------------------------------------------------------------------------|




Ваше мнение



Капча