Intro/Verse:
e---4---5---4---7---
B---5---5---5---8---
G---6---6---6---8---
D-------------------
A-------------------
E-------------------
Solo thingy (number of times each note is played is not correct):
e---9--9--12--9--------12--14---
B----------------4--5-----------
G-------------------------------
D-------------------------------
A-------------------------------
E-------------------------------
Hard Rock Verse Part (not exact tabs--you have to figure how many times each chord is played):
e----------------
B----------------
G----------------
D---5-----8------
A---3--6--6--8---
E------4-----6---




Ваше мнение



Капча