Tuning:Standard
This is the first single of authority zero's new album
/=seperates 1st part from second part
Intro
e|-------------------------------/-------------------------------------------|
B|------1-1-------------1-1------/-------------------------------------------|
G|---2-2----3-2-----2-2------3-2-/-----2-2-0-------------2-2-0---------------|
D|-3------------3-3--------------/-0-4-------4---0-0-4-4-------4-------------|
A|-------------------------------/-------------------------------------------|
E|-------------------------------/-------------------------------------------|repeat 1st part of intro
intro pt.2
e|-----------------------------------------------------------------10(x5)----|
B|----------10(x6)-8-6-8-6-8-10(x5)--10-10-10-11-10--10-10-10-11-10----------|
G|-7--------------------------------7-------------------------------------7--|
D|-7(x16)--------------------------------------------------------------------|
A|-5-------------------------------------------------------------------------|
E|---------------------------------------------------------------------------|
Verse (Listen to the song to figure out the strum pattern)
e|----------------/----------------------------------------------------------|
B|----------------/----------------------------------------------------------|
G|--------7-------/----------------------------------------------------------|
D|-3------7---(x2)/-----2--5--3--2-------0--3--7--5-4------------------------|
A|-3------5-------/--3--0--3--1--0-(x2)--0--1--5--3-2-(x2)-------------------|
E|-1--------------/--1-------------------------------------------------------|Repeat 2nd part
prechorus
e|---------------------------------------------------------------------------|
B|---------------------------------------------------------------------------|
G|--7------------------------------------------------------------------------|
D|--7-(x7)-------------------------------------------------------------------|
A|--5------------------------------------------------------------------------|
E|---------------------------------------------------------------------------|
Chorus
e|-----------------------------/---------------------------------------------|
B|--------8-7-6----------------/--------8-7-6--------------------------------|
G|-7----------------------5(x7)/-7----------------------5--------------------|
D|-7(x4)--5-4-3----3------5----/-7(x4)--5-4-3------3----5-5------------------|
A|-5---------------3(x7)--3----/-5-----------------3(x7)3-5(x7)--------------|
E|-----------------1-----------/-------------------1------3------------------|Repeat 1st part of chorus twice

order
intro
intro pt.2
verse
prechorus
chorus
verse
prechorus
chorus
intro
bridge=basically the verse
prechorus
chorus

End on D5

Lyrics

Verse 1
Look at the blueprints as they disappear
Gaze at the blank space filled with all our fears
to make a move could mean devestation
to take a chance is the way to face them
making choice to take a different road

Chorus
You want a revolution
Youve got to make a difference on your own
You want a Revolution
Stand up, stand out and make it known

Verse 2
A new state, renovation
A new day, brings rejuvenation
These days, another way no reply
No reply, I think about it this way
Times up, how can i say thats okay?
Too late, I should've, could've, maybe
Why wait when in the end it could be my last big mistake?

Repeat chorus

Bridge
Face first, new day, choices weve made
Face first, new day, choices weve made
Face first our ability to choose
I make a change instead of saying its just fine
Time to open up and time to realize
You can make a differece if you try

Repeat chorus

thats it enjoy!!!!!!





Ваше мнение



Капча