Tabbed By : x0ledzep0x

Tuning: eadg

INTRO
G|---------10-12-10---------10-12-10----------|
D|-7-10/12----------7-10/12-------------------|repeat then
A|--------------------------------------------|
E|--------------------------------------------|

G|---------10---10-12-10-12-14-12h14-17-------|
D|-7-10/12----12------------------------------|
A|--------------------------------------------|
E|--------------------------------------------|

VERSE
G|-----------------------------9--------------|
D|-7777-10-10-10-10-7777-10/12---12-----------|repeat 4x
A|--------------------------------------------|
E|--------------------------------------------|

CHORUS
G|-------------------------5h6h7-5------------|
D|-7-7-7-7-3-3-3-3-7-7-5h7---------7----------|repeat 4x
A|--------------------------------------------|
E|--------------------------------------------|

MELLOWER PART
G|---------------------5-5-5-5-5-----5h6h7-5---|
D|-7-7-7-7-7-3-3-3-3-3-----------5h7---------7-|repeat 4x
A|---------------------------------------------|
E|---------------------------------------------|

ENDING NOTE
G|----|
D|-10-|
A|----|
E|----|

SONG ORDER
INTRO
VERSE
CHORUS
INTRO
VERSE
CHORUS
INTRO
MELLOWER PART
INTRO
INTRO
ENDING NOTE




Ваше мнение



Капча