www.authority-zero.com
I've looked for this song for a long time.
this is how it goes:

intro: but by the way:
e]---3---3-----------4---3--- e--3--x----x-x-x--3------------------
B]---4-----4-------4-----3--- B--4--x----x-x-x--4------------------
G]---5-------5---5-------4--- G--5--x----x-x-x--5------------------
D]-------------6---------5--- D------------------------------------
A]--------------------------- A------------------------------------
E]--------------------------- E------------------------------------
i'm going away: chorus:
e---3--4--3---- e--3--x---x-x-x--3--x---x-x-x-333333---
B---4--4--3---- B--4--x---x-x-x--4--x---x-x-x-444444---
G---5--5--4---- G--5--x---x-x-x--5--x---x-x-x-555555---
D---5--6--5---- D--------------------------------------
A-------------- A--------------------------------------
E-------------- E--------------------------------------

so far away:
e--------------------3--x---x-x-x-3--
B--------------------4--x---x-x-x-4--
G--------------------5--x---x-x-x-5--
D----------------x2------------------
A---3-3------------------------------
E------4-4/5-4-3---------------------
chorus:
sunshine,in my eyes:
e---------------------------------777777-555-3-2--3--x---x-x-x-3---
B---------------------------------888888-777-5-3--4--x---x-x-x-4---
G-------------------------------------------------5--x---x-x-x-5---
D------------------------------------------------------------------
A--3-3--------3-3slide6-6/7-6-5------------------------------------
E-----4-4/5-4------------------------------------------------------
solo:
e---------------------------------------------------------------------
B---------------------------------------------------------------------
G---------------------------------------------------------------------
D---10-10-1010-8-8-8-8-8-8-6-6-6-8-6-9-6-10-6-6-9-9-9-8-7-6-7-6-5-6-x2
A---------------------------------------------------------------------
E---------------------------------------------------------------------

e--------------------------------------------------------------------
B---12-12-1212-10-10-10-9-7-8slide6-6-6-765-765-765-8-7-5-6----------
G--------------------------------------------------------------------
D--------------------------------------------------------------------
A--------------------------------------------------------------------
E--------------------------------------------------------------------

e---------------------------------------------------------------------
B---------------------------------------------------------------------
G---------------------------------------------------------------------
D---10-10-1010-8-8-8-8-8-8-6-6-6-8-6-9-6-10-6-6-9-9-9-8-7-6-7-6-5-6---
A---------------------------------------------------------------------
E---------------------------------------------------------------------
chorus:

That's all!!!!!!




Ваше мнение



Капча