----------------------------------------------------------------------------
Authority Zero
Everyday
----------------------------------------------------------------------------
Tabbed by:CoheedANDNoFx6
AIM:Warxall0thextime6
Tuning:Standard
:INTRO AND CHORUS:
e|-----------------------------------------|
B|-----------------------------------------|
G|-----------------------------------------|
D|-----------------------------------------| play twice
A|--------------0-5-0-5--2-5-2-5--5-8-7-5--|
E|---7-10-7-10-----------------------------|
:2ND PART OF INTRO:
e|------------------------------------------------------------------------|
B|------------------------------------------------------------------------|
G|------------------------------------------------------------------------|
D|---5-5-7-7---7------3------5------2------7------3------5----------------|
A|---5-5-7-7---7-(8x)-3-(8x)-5-(8x)-2-(8x)-7-(8x)-3-(8x)-5-(8x)--5-8-7-0--|
E|---5-5-7-7---7------3------5------2------7------3------5----------------|
. . . .
P.M.
:VERSE:
e|------------------------------------------------------------------------|
B|------------------------------------------------------------------------|
G|------------------------------------------------------------------------|
D|---7-7-7-7--3-3-3-3--5-5-5-5--2-2-2-2--7-7-7-7--3-3-3-3--5-5-5-5--------|
A|---7-7-7-7--3-3-3-3--5-5-5-5--2-2-2-2--7-7-7-7--3-3-3-3--5-5-5-5-5-8-7-0|
E|---7-7-7-7--3-3-3-3--5-5-5-5--2-2-2-2--7-7-7-7--3-3-3-3--5-5-5-5--------|
. . . . . . . . . . . . . . . . . . . . . . . . . . . .
P.M.
Thats pretty Much The whole song. Listen to it toget the timing.Have Fun.
PLEASE RATE




Ваше мнение



Капча