Audiovent- The Energy
Tabbed by: Gon3mad & Betrnpippi ([email protected])
(http://www22.brinkster.com/gon3mad)
Tuning: Drop D (DADGBe)
Intro:
e----------------------------------------------
B----------------------------------------------
G--9-12-11-----11-12--9---12-11----11-12----12- 4x's
D----------12-------------------12-------10----
A----------------------------------------------
D----------------------------------------------
Riff A
e--------------------------------------------------------------
B--------------------------------------------------------------
G--------------------------------------------------------------
D--2-x-2-2--x-x-5-x-5-5-x-x-0-x-0-0-x-x-0-7-0-7-0/-10-10-10-10--
A--2-x-2-2--x-x-5-x-5-5-x-x-0-x-0-0-x-x-0-7-0-7-0/-10-10-10-10--
D--2-x-2-2--x-x-5-x-5-5-x-x-0-x-0-0-x-x-0-7-0-7-0/-10-10-10-10--
e-----------------------------------------------------
B-----------------------------------------------------
G-----------------------------------------9b-9-9-9-9--
D--2-x-2-2-x-x-0-x-0-0-x-x-5-x-5-5-x-x-7--------------
A--2-x-2-2-x-x-0-x-0-0-x-x-5-x-5-5-x-x-7--------------
D--2-x-2-2-x-x-0-x-0-0-x-x-5-x-5-5-x-x-7--------------
e--------------------------------------------------------------
B--------------------------------------------------------------
G--------------------------------------------------------------
D--2-x-2-2--x-x-5-x-5-5-x-x-0-x-0-0-x-x-0-7-0-7-0/-10-10-10-10--
A--2-x-2-2--x-x-5-x-5-5-x-x-0-x-0-0-x-x-0-7-0-7-0/-10-10-10-10--
D--2-x-2-2--x-x-5-x-5-5-x-x-0-x-0-0-x-x-0-7-0-7-0/-10-10-10-10--
e---------------------------------------------
B---------------------------------------------
G---------------------------------------------
D--2-x-2-2--x-x-5-x-5-5-x-x-0-x-0-0-/7-7-7-7--
A--2-x-2-2--x-x-5-x-5-5-x-x-0-x-0-0-/7-7-7-7--
D--2-x-2-2--x-x-5-x-5-5-x-x-0-x-0-0-/7-7-7-7--
Riff B
e--0--0--0--0--0--0--0--0--
B--7--5--7--5--7--5--7--7--
G--9--4--9--4--9--4--9--8--
D--------------------------
A--------------------------
D--------------------------
Riff C
e------------------------------------------------------
B------------------------------------------------------
G------------------------------------------------------
D--2-x-0-2-x-0-2-x-0-2-5-2-0-7-x-0-7-x-0-5-x-0-4-5-4-0-
A--2-x-0-2-x-0-2-x-0-2-5-2-0-7-x-0-7-x-0-5-x-0-4-5-4-0-
D--2-x-0-2-x-0-2-x-0-2-5-2-0-7-x-0-7-x-0-5-x-0-4-5-4-0-
e-----------------------------------------------
B-----------------------------------------------
G-----------------------------5-5-5-5--7-7-7-7-- (2x's)
D--2-x-0-2-x-0-2-x-0-2-5-2-0--5-5-5-5--7-7-7-7--
A--2-x-0-2-x-0-2-x-0-2-5-2-0--3-3-3-3--5-5-5-5--
D--2-x-0-2-x-0-2-x-0-2-5-2-0--------------------
Riff D
Palm Mute..........................................|
e---------------------------------------------------
B---------------------------------------------------
G---------------------------------------------------
D--2-2-2-2-2-2-2-2-5-5-5-5-5-5-5-5-0-0-0-0-0-0-0-0--
A--2-2-2-2-2-2-2-2-5-5-5-5-5-5-5-5-0-0-0-0-0-0-0-0--
D--2-2-2-2-2-2-2-2-5-5-5-5-5-5-5-5-0-0-0-0-0-0-0-0--
e-----------------
B-----------------
G------------5-5--
D--0-7-0-7-0-5-5--
A--0-7-0-7-0-3-3--
D--0-7-0-7-0------
Riff E
e-------------------------------------------
B-------------------------------------------
G-------------------------------------------
D--2-0-2-2-0-0-0-0-5-7-5-7-5-7-5-7-7-5-5-0--
A--2-0-2-2-0-0-0-0-5-7-5-7-5-7-5-7-7-5-5-0--
D--2-0-2-2-0-0-0-0-5-7-5-7-5-7-5-7-7-5-5-0--
e------------------------------------------------
B------------------------------------------------
G------------------------------------------------
D--2-x-2-2-5-x-5-5-5-5-0-x-0-0-7-7-/10-10-10-10--
A--2-x-2-2-5-x-5-5-5-5-0-x-0-0-7-7-/10-10-10-10--
D--2-x-2-2-5-x-5-5-5-5-0-x-0-0-7-7-/10-10-10-10--
e--------------------------------------
B--------------------------------------
G--------------------------------------
D--2-x-2-2-0-x-0-0-0-0-5-x-5-5-7-7-7-7-
A--2-x-2-2-0-x-0-0-0-0-5-x-5-5-7-7-7-7-
D--2-x-2-2-0-x-0-0-0-0-5-x-5-5-7-7-7-7-
Play Riff B
Play Riff C 2x's
Solo (Play riff C Under solo)
e-----------------------------------------------------------
B--5b-------5b------------------------5b-------5b-------10b-
G-----7-------7-------------7-9---7-9----7--------7---------
D-------7-5-----7-5-7-9-9-9-----9----------7-5------7-5-----
A-----------------------------------------------------------
D-----------------------------------------------------------
e----------------------------------------------------------
B--5b-------5b------------------------5b------5b-----------
G-----7-------7-----------7-9b-7-9b-7---7--------7---------
D-------7-5-----7-5-7-9-9-----------------7-5------7-5-7-9-
A-----------------------------------------------------------
D-----------------------------------------------------------
e--------------------------------------------------
B--12-10-12-10-12-10-12-10-------------------------
G--------------------------9b-9b-9b-9b-9b-9b-9b-9b-
D--------------------------------------------------
A--------------------------------------------------
D--------------------------------------------------
Play riff C 1x
Ending:
e------------------------------------------------------
B------------------------------------------------------
G------------------------------------------------------
D--2-x-0-2-x-0-2-x-0-2-5-2-0-7-x-0-7-x-0-5-x-0-4-5-4-0-
A--2-x-0-2-x-0-2-x-0-2-5-2-0-7-x-0-7-x-0-5-x-0-4-5-4-0-
D--2-x-0-2-x-0-2-x-0-2-5-2-0-7-x-0-7-x-0-5-x-0-4-5-4-0-
e----------------------------
B----------------------------
G----------------------------
D--2-x-0-2-x-0-2-x-0-2-5-2-0-
A--2-x-0-2-x-0-2-x-0-2-5-2-0-
D--2-x-0-2-x-0-2-x-0-2-5-2-0-
Riff F:
e-----------------------------------
B-----------------------------------
G--5-5-5-5-5-5-5-5-7-7-7-7-7-7-7-7--
D--5-5-5-5-5-5-5-5-7-7-7-7-7-7-7-7-- (play 3x's)
A--3-3-3-3-3-3-3-3-5-5-5-5-5-5-5-5--
D-----------------------------------
e-----
B-----
G-----
D--2--
A--2--
D--2--
There you go.





Ваше мнение



Капча