Standard tuning

Intro x2 (clean with high treble)
|-----------------------------------------------|
|-----------------------------------------------|
|-555---------101010-555------------------------|
|-555-555-666-101010-555-555-666-333------------|
|-333-555-666-8-8-8--333-555-666-333------------|
|-333-333-666--------333-333-666-111------------|

Then hit the dist.
Intro continuedx4
|-----------------------------------------------|
|-----------------------------------------------|
|-555---------101010-555------------------------|
|-555-555-666-101010-555-555-666-333------------|
|-333-555-666-8-8-8--333-555-666-333------------|
|-333-333-666--------333-333-666-111------------|

Verse x1
|-----------------------------------------------|
|-----------------------------------------------|
|-5=-8=-3=-6x8----------------------------------|
|-5=-8=-3=-6x8----------------------------------|
|-3=-6=-1=-4x6----------------------------------|
|-3=-6=-1=-4x6----------------------------------|

Verse continued x2 (palm muted)
|-----------------------------------------------|
|-----------------------------------------------|
|-5----8----3----6----8-------------------------| double speed
|-5-x8-8-x8-3-x8-6-x4-8-x4----------------------|
|-3----6----1----4----6-------------------------|
|-3----6----1----4----6-------------------------|

Chorus x4
|-----------------------------------------------|
|-----------------------------------------------|
|-555---------101010-555------------------------|
|-555-555-666-101010-555-555-666-333------------|
|-333-555-666-8-8-8--333-555-666-333------------|
|-333-333-666--------333-333-666-111------------|

Ending (a lot)
|--x-x-x-x--------------------------------------|
|--x-x-x-x--------------------------------------|
|-5x-x5x-x5x------------------------------------|
|-5x5x5x5x5x5-3===------------------------------|
|-3x5x3x5x3x5-3===------------------------------|
|-3x3x3x3x3x3-1===------------------------------|

Listen to the track for its structure

(if anyone works out the solo send it to me [email protected])

= let ring
X mute





Ваше мнение



Капча