by:josh
band:Audioslave
album:Audioslave
song:Show Me How To Live
tuning:D A D G B E
date:November 25, 2002

..by the way the tuning came strait from tom morello's mouth in guitar world

key:
~ = hold
* = rest
tp= tremlo pick
b = bend
h = hammer on
p = pull off

intro : light dist
E------------
B------------
G-7----------
D-7--------2-
A-5--------2-
D----------2-

pre verse : heavy distortion
E---------------------------------------------------------------------*---
B---------------------------------------------------------------------*---
G---------------------------------------------------------------------*---
D-----0h2---------------------------------------------0h2-------------*---
A---------------------------------------------------------------------*---
D-0h2-----0--2--0--2--0--2---7b-8-7-5-7-5-2-2-5-2-0h2-----0-2-0-2-0-2-*---

verse : heavy distortion and palm muted
E---------------------------------------------------------------------*---
B---------------------------------------------------------------------*---
G---------------------------------------------------------------------*---
D-----0h2---------------------------------------------0h2-------------*---
A---------------------------------------------------------------------*---
D-0h2-----0--2--0--2--0--2---7b-8-7-5-7-5-2-2-5-2-0h2-----0-2-0-2-0-2-*---

prechorus
E------------
B------------
G------------
D-x-x--x-x-x-
A-x-x--x-x-x-
D-x-x--x-x-x-

chorus : heavy distortion
E------------------
B------------------
G------------------
D-2--5---------0-2-
A-2--5-------------
D-2--5-2p0-2p0-----

solo : dist with some effect
just play from 2:30 to 2:50
E------
B------
G--9t--
D------
A------
D------

breakdown :
E------------
B------------
G-7----------
D-7--------2-
A-5--------2-
D----------2-

outro 1 :
play from 3:59 to 4:17
E--------------
B--------------
G--------------
D-2--2--2-2--2-
A-2--2--2-2--2-
D-2--2--2-2--2-

outro 2 : this is the part where chris's
voice changes key a few times im not sure if
tom's is playin during it or not but this matches
up so even if hes not playin still sounds right

E---------------------------
B---------------------------
G-9-----7-----4--2--0-------
D----------------------0--2-
A---------------------------
D---------------------------

order:
intro 4x
preverse 2x
verse 4x
prechorus 1x
chorus 8x
verse 2x
prechorus 1x
chorus 8x
solo
breakdown 8x
chorus 8x
outro 1
outro 2 1x




Ваше мнение



Капча