This is how i play the song, and it sounds pretty good

^:Whole note |: eighth note | : sixteenth note |: thirtysecond note
*:Half Note - = =
|:Quarter note -

*(): harmonic
!: False harmonic
/: Slide

(B) (D) (A) (C#)
e------------------------------------------------------
b------------------------------------------------------
g---7--7--7--7--7--7--7--7-----6--6--6--6--6--6--6--6--
d--9--9--9--9--9--9--9--9-----7--7--7--7--7--7--7--7---
a------------------------------------------------------
E------------------------------------------------------
|| || || || || || || || || || || || || || || || (16th notes)
===== ===== ===== ===== ===== ===== ===== =====

(play this clean until the chorus which is like 10 times) [16th notes]


(Play this bit 3 times) (the fourth time, play this)
E5 D5 B5 (B)(F#)(D)
e--------------*(7)---------|--------------------
b-----------------*(7)------|--------------------
g----------------------*(7)-|--------------------
d-14--12----9---------------|-14--12--9--9---9---
a-14--12----9---------------|-14--12--9--9---9---
E-12--10----7---------------|-12--10--7--10--7---
|
| | | | | | | | | | | |
- ====== =====

(Play this whole thing twice with distortion, Heavy overdive, spike mid Fq)

The solo (sounds perfect, don't argue) [pre-pre-solo]

e--------12-----10-14-17-22--
b-12--10----10--12-12-15-22--
g----------------------------
d----------------------------
a----------------------------
E----------------------------

^ ^ ^ ^ ^ ^ ^ ^
[pre-solo]
e-------19-19---19-19--19-19--19-19--19-19--19-
b-------19-19---19-19--19-19--19-19--19-19--19-
g-16-16------16------16------16----16-----16---
d----------------------------------------------
a----------------------------------------------
E----------------------------------------------

| | | | | | | | | | | | | | | | | |
============================================ (32nd notes)
--------------------------------------------
[cool solo]

e-16/17/16-14-16-17-17----16/17/16-14-17-17------------------------------
b-12-12-12-12-12-12-12----12-12-12-12-12-12------------------------------
g-----------------------------------------------16h1716-16--16h17h16-16--
d-----------------------------------------------16------16--16-------16--
a------------------------------------------------------------------------
E------------------------------------------------------------------------

| | | | | | | | | | | | | | | | | | | | |
======= - ===== ======= - = ====== - ======= -

There you go, the solo, sounds perfect. Use wah and delay.

Outro

e---------------------|-------
b---------------------|-------
g---------------------|-------
d----------9-7-9------|-------
a--------------------7|--------
E-14/7--10-------7-10-|-14/7---

| | | | | | | | |
- - === ---------

Use distortion.

There you go, this song is In Bm, the time sig is 3/4 and the tempo 65-69 quarter
notes per minute

Have fun

Tabbed by Warm_Machine




Ваше мнение



Капча