Artist: Audioslave
Song: Set It Off (intro)
Album: Audioslave
Tabber: CrayzeMF

I hope this is right. Use tremelo.

e|-------------------------
b|-------------------------
g|---------4--5p4---------- x4
d|-----------------4/9-----
a|-------------------------
E|---0--2------------------

e|-------------------------
b|-------------------------
g|------------------------- x4
d|-------------------------
a|-------------------------
E|---0--2p0h2p0--2---------

e|-------------------------
b|-------------------------
g|---------4--5p4----------
d|-----------------4/9-----
a|-------------------------
E|---0--2------------------

e|-------------------------
b|-------------------------
g|---------4--5p4----------
d|-----------------4/7-----
a|-------------------------
E|---0--2------------------

Ok i hope you could all agree with this.




Ваше мнение



Капча