Love Is A Headache
By: Audioslave
Standard Tuning
Tabbed by: Brandon Conway
Intro |---------------------------------------------------------|
|---------------------------------------------------------|play
|---------------------------------------------------------|whole
|-----9-----9---9-----7-----7---7-----5-----5---5-7-7-7-7-|intro
|-----9-----9---9-----7-----7---7-----5-----5---5-7-7-7-7-|2x
|-7-7-7-7-7-7-7-7-5-5-5-5-5-5-5-5-3-3-3-3-3-3-3-3-5-5-5-5-|

|---------------------------------------------------------|
|---------------------------------------------------------|
|---------------------------------------------------------|
|-----9-----9---9-----7-----7---7-----5-----5---5-9-9-7-5-|
|-----9-----9---9-----7-----7---7-----5-----5---5-9-9-7-5-|
|-7-7-7-7-7-7-7-7-5-5-5-5-5-5-5-5-3-3-3-3-3-3-3-3-7-7-5-3-|

verse |---------------------------------------------------------|repeat
|---------------------------------------------------------|until
|---------------------------------------------------------|chorus
|-----9-----7-----5-----7-----9-----7-----5-----7---------|starts
|----9-----7-----5-----7-----9-----7-----5-----7----------|
|-7-7---5-5---3-3---5-5---7-7---5-5---3-3---5-5-----------|

chorus |---------------------------------------------------------|repeat
|---------------------------------------------------------|until
|---------------------------------------------------------|end
|-----9-----9---9-----7-----7---7-----5-----5---5-7-7-7-7-|of
|-----9-----9---9-----7-----7---7-----5-----5---5-7-7-7-7-|chorus
|-7-7-7-7-7-7-7-7-5-5-5-5-5-5-5-5-3-3-3-3-3-3-3-3-5-5-5-5-|

pm.........................................................
bridge |---------------------------------------------------------|
|---------------------------------------------------------|
|---------------------------------------------------------|
|-9--9-9-7--7-7-5--5-5-7--7-5--7-9--9-9-7--7-7-5--5-5-7--5|
|-9--9-9-7--7-7-5--5-5-7--7-5--7-9--9-9-7--7-7-5--5-5-7--5|
|-7--7-7-5--5-5-3--3-3-5--5-3--5-7--7-7-5--5-5-3--3-3-5--3|

pm.....
|-----|repeat whole bridge one more time
|-----|
|-----|
|-7-9-|
|-7-9-|
|-5-7-|

for end of song, play chorus until the music stops




Ваше мнение



Капча