-------------------------------------------------------------------------------
Like a stone-Audioslacve
-------------------------------------------------------------------------------
Tabbed by:Greg
Email:[email protected]
Tuning:Standard w/capo at third fret(All chords are relative to the capo) or Opeb G(low to
high-GCFBbDG)
Intro/Verse (clean w/tremelo)
e|---------------------------------------------------------------------------|
B|---------------------------------------------------------------------------|
G|---------------------------------------------------------------------------|
D|----------------------------------------10--9------------------------------|
A|-10--------12----------------9---------------------------------------------|
E|------12--------10-----7-----------8---------------------------------------|
(1x for intro,4x for verse)
Chorus (w/light distortion)
In house long be
Em G D5 Em
e|---------------------------------------------------------------------------|
B|------------------3--------------------------------------------------------|
G|0--------0--------2------0-------------------------------------------------|
D|2--------0--------0------2-------------------------------------------------|
A|2--------2--------0------2-------------------------------------------------|
E|0--------3---------------0-------------------------------------------------|
room room patienly I'll
Em G D5 Em
e|---------------------------------------------------------------------------|
B|------------------3--------------------------------------------------------|
G|0--------0--------2------0-------------------------------------------------|
D|2--------0--------0------2-------------------------------------------------|
A|2--------2--------0------2-------------------------------------------------|
E|0--------3---------------0-------------------------------------------------|
wait there like stone
c Em D5 Em
e|----------------------------------------------------------------------------|
B|1-----------------3---------------------------------------------------------|
G|0--------0--------2-------0-------------------------------------------------|
D|2--------2--------0-------2-------------------------------------------------|
A|3--------2--------0-------2-------------------------------------------------|
E|3--------0----------------0-------------------------------------------------|
wait there alone
C Em B7
e|------------------------------------------------------------------------------|
B|1-----------------------------------------------------------------------------|
G|0--------0---------2----------------------------------------------------------|
D|2--------2---------1----------------------------------------------------------|
A|3--------2---------2----------------------------------------------------------|
E|3--------0---------0----------------------------------------------------------|
Guitar solo(w/dist and Whammy pedal,set to raise pitch two octaves)
e|---------------------------------------------------------------------------|
B|---------------------------------------------------------------------------|
G|---------------------------------------------------------------------------|
D|---------------------------------------------------------------------------|
A|7-------9-----10------12----10---9------7~---------------------------------|
E|---------------------------------------------------------------------------|
e|---------------------------------------------------------------------------|
B|---------------------------------------------------------------------------|
G|---------------------------------------------------------------------------|
D|---------------------------------------------------------------------------|
A|7------9-----5~-----10-----12----14-(14)-----------------------------------|
E|---------------------------------------------------------------------------|
e|---------------------------------------------------------------------------|
B|---------------------------------------------------------------------------|
G|12---11--------------------------------------------------------------------|
D|-----------12----9---------------------------------------------------------|
A|---------------------------------------------------------------------------|
E|------------------------------------------------------------4x-------------|
e|---------------------------------------------------------------------------|
B|---------------------------------------------------------------------------|
G|---------------------------------------------------------------------------|
D|---------------------------------------------------------------------------|
A|---------------------------------------------------------------------------|
E|0--2---3---5---7---8--10---12---14-15-14-15-14~~~~-------------------------|
Bridge(acoustic)i'm not gonna post the strumming,its easy
C G B7 C
e|0------3-------2------0----------------------------------------------------|
B|1------0-------0------1----------------------------------------------------|
G|0------0-------2------0----------------------------------------------------|
D|2------0-------1------2----------------------------------------------------|
A|3------2-------2------3----------------------------------------------------|
E|-------3-------------------------------------------------------------------|

Cm A7 B7 Em
e|3------0------2----0-------------------------------------------------------|
B|4------2------0----0-------------------------------------------------------|
G|5------0------2----0-------------------------------------------------------|
D|5------2------1----2-------------------------------------------------------|
A|3------0------2----2-------------------------------------------------------|
E|-------------------0-------------------------------------------------------|
then the C G B7 C
then Cm A7 B7 B7
It goes
Intro
Verse
Chorus
Intro
Verse
Solo
Bridge
Chorus
Ok now i got this out of the book,so if this tab doesn't sound right to you,then your deaf...
| / slide up
| slide down
| h hammer-on
| p pull-off
| ~ vibrato
| + harmonic
| x Mute note
===============================================================================




Ваше мнение



Капча